A Perfect Circle - Judith Chords & Tabs

 

Judith Chords & Tabs

A Perfect Circle Chords & Tabs

Version: 2 Type: Tab 0 ratings
1 star 2 stars 3 stars 4 stars 5 stars
comments

Judith Tab

От: for www.ultimate-guitar.com 
Кому: 
Тема: New Tabs
Дата: 7 июля 2000 г. 5:17

A Perfect Circle,Judith.
 Tabbed by Murki,murki@yahoo.com.
  
Dropped D tuning
"Judith" by A Perfect Circle

tabbed by Eric Salgado
esalgado@ucsd.edu

aditions and corrections by MURKI (Miguel Angel Juárez López from Mexico)
murki@yahoo.com

Ok, the first tab submitted was pretty good, but 
there were a few mistakes on the chorus and other
parts. Hope you like the corrections.

This is pretty close but I think APC uses a slide
on some of the guitar riffs. I just tabbed it
so that you dont need one.

Intro x2 with distortion

E--------------------------------------------------|
B--------------------------------------------------|
G-----------------------------------------16-16-15-|
D--------------------------------------------------|
A-9h11-11-11--9h11-11^12^11--9-9h11-9h11--14-14-13-|
D-9h11-11-11--9h11-11^12^11--9-9h11-9h11-----------|

Then this x2
E--------------------------------------------------|
B--------------------------------------------------|
G--------------------------------------------------|
D-9h11-11-11--9h11-11^12^11--9h11-11-11--9\2-------|
A--------------------------------------------------|
D--------------------------------------------------|

last time before verse
E|-------------------|
B|-------------------| 
G|-------------------|
D|-------------------|
A|-------------------|
E|-9/14\9-9/11b12r11-|

verse x4

"You're such an inspiration..."
p.m.......................................|
E--------------------------------------------------|
B--------------------------------------------------|
G--------------------------------------------------|
D--------------------------------------------------|
A---------------------------------------------2-2-2|
D-9h11-11-11--9h11-11^12^11--9h11-11-11-11p9--2-2-2|

second part of verse x4
".....and your Christ"
p.m.......................................|
E--------------------------------------------------|
B--------------------------------------------------|
G--------------------------------------------------|
D--------------------------------------------------|
A-9h11-11-11--9h11-11^12^11--9h11-11-11-11p9--2-2-2|
D-9h11-11-11--9h11-11^12^11--9h11-11-11-11p9--2-2-2|

Pre Chorus x3
"Its not like you killed someone...."
E--------------------------------------------------|
B--------------------------------------------------|
G-12-12-12-11-11\6--6-6-7-6------------------------|
D--------------------------------------------------|
A-10-10-10--9--9\4--4-4-5-4------------------------|
D--------------------------------------------------|
x1
E--------------------------------------------------|
B--------------------------------------------------|
G-11-11-11-10-10\13-13-13-8-8----------------------|
D--------------------------------------------------|
A--9--9--9--8--8\11-11-11-6-6----------------------|
D--------------------------------------------------|

x2
"He did it all for you....."
E-----14\-------12\--------------------------------|
B-14~-------12~------------------------------------|
G--------------------------------------------------|
D--------------------------------------------------|
A--------------------------------------------------|
D--------------------------------------------------|
x1
E-----14\-------16\--------------------------------|
B-14~-------12~------------------------------------|
G--------------------------------------------------|
D--------------------------------------------------|
A--------------------------------------------------|
D--------------------------------------------------|

"Did it all for you....."
E--------------------------------------------------|
B--------------------------------------------------|
G-13~-16~-11~-13~-10~-6---------12~--11\6--6-7-6---|
D-------------------------------12~--11\6--6-7-6---|
A-11~-14~-9~--11~-8~--4----------------------------|
D--------------------------------------------------|

E--------------------------------------------------|
B--------------------------------------------------|
G---12~--11\6--6-7-6------------12~--11\6--6-7-6---|
D---12~--11\6--6-7-6------------12~--11\6--6-7-6---|
A--------------------------------------------------|
D--------------------------------------------------|
[ Tab from: http://www.guitartabs.cc/tabs/a/a_perfect_circle/judith_tab_ver_2.html ]
interlude x2
E--------------------------------------------------|
B--12h14-14-14--12h14/17\14-12h14-14-14--14-12-9~--|
G--------------------------------------------------|
D--------------------------------------------------|
A--------------------------------------------------|
D--------------------------------------------------|

second verse 

"Oh so many ways to..."
p.m.......................................|
E--------------------------------------------------|
B--------------------------------------------------|
G--------------------------------------------------|
D--------------------------------------------------|
A---------------------------------------------2-2-2|
D-9h11-11-11--9h11-11^12^11--9h11-11-11-11p9--2-2-2|

E-19~---------19~-18~------------19-19-19-19-20----|
B-----------------------------------------------19-|
G--------------------------------------------------|
D--------------------------------------------------|
A--------------------------------------------------|
D--------------------------------------------------|

second part of second verse x4
"Cry to your ..."
p.m.......................................|
E-----------------------------------------------------|
B-----------------------------------------------------|
G---------------------------------------------16-16-15|
D-----------------------------------------------------|
A-9h11-11-11--9h11-11/12\11--9h11-11-11-11p9--14-14-13|
D-9h11-11-11--9h11-11/12\11--9h11-11-11-11p9----------|

Pre Chorus x3
"Its not like you killed someone...."
E--------------------------------------------------|
B--------------------------------------------------|
G-12-12-12-11-11\6--6-6-7-6------------------------|
D--------------------------------------------------|
A-10-10-10--9--9\4--4-4-5-4------------------------|
D--------------------------------------------------|
x1
E--------------------------------------------------|
B--------------------------------------------------|
G-11-11-11-10-10\13-13-13-8-8----------------------|
D--------------------------------------------------|
A--9--9--9--8--8\11-11-11-6-6----------------------|
D--------------------------------------------------|

x2
"He did it all for you....."
E-----14\-------12\--------------------------------|
B-14~-------12~------------------------------------|
G--------------------------------------------------|
D--------------------------------------------------|
A--------------------------------------------------|
D--------------------------------------------------|
x1
E-----14\-------16\--------------------------------|
B-14~-------12~------------------------------------|
G--------------------------------------------------|
D--------------------------------------------------|
A--------------------------------------------------|
D--------------------------------------------------|

E--------------------------|
B--------------------------|
G-13~-16~-11~-13~-10~-6----|
D--------------------------|
A-11~-14~-9~--11~-8~--4----|
D--------------------------| 

E|-9-9-9---------11-11/9-9-9-9---9-9-9-9-----------------------9-9-9---------11/16~--|
B|--------12-12-------------------------------12-12p9-9-9\7-7----------12-12---------|
G|-----------------------------------------------------------------------------------|
D|-----------------------------------------------------------------------------------|
A|-----------------------------------------------------------------------------------|
E|-----------------------------------------------------------------------------------|

E--------------------------|
B--------------------------|
G-13~-16~-11~-13~-10~-6----|
D--------------------------|
A-11~-14~-9~--11~-8~--4----|
D--------------------------|

x2
E-----14\-------12\--------------------------------|
B-14~-------12~------------------------------------|
G--------------------------------------------------|
D--------------------------------------------------|
A--------------------------------------------------|
D--------------------------------------------------|
x1
E-----14\-------16\--------------------------------|
B-14~-------12~------------------------------------|
G--------------------------------------------------|
D--------------------------------------------------|
A--------------------------------------------------|
D--------------------------------------------------|
x3
E--------------------------|
B--------------------------|
G-13~-16~-11~-13~-10~-6----|
D--------------------------|
A-11~-14~-9~--11~-8~--4----|
D--------------------------|
x1
E-------------------------|
B-------------------------|
G-13~-16~-11~-13~-10~-/11~|
D-------------------------|
A-11~-14~-9~--11~-8~--/13~|
D-------------------------|  
:: Ultimate Guitar Archive :: 
http://www.ultimate-guitar.com 

Comments