A Perfect Circle - Imagine Chords & Tabs

 

Imagine Chords & Tabs

A Perfect Circle Chords & Tabs

Version: 1 Type: Bass Tab 0 ratings
1 star 2 stars 3 stars 4 stars 5 stars
comments

Imagine Bass Tab

   
Band- A Perfect Circle
Song- Imagine
Album- Emotive

Tuning: Standard (E A D G)

whoooooo easy song GL!

"It's easy if you try..."
F|------------------------------||
C|------------------------------||
G|------------------------------|| x1
C|0~~~----------//5~~~----------||
B|------------------------------||
  

pause
 
"imagine all the people..."
F|-------------------------------------------------- ||
C|-------------------------------------------------- ||
G|-------------------------------------------------- || x1
C|0~~~-----------/10------8-------7---------------5~ ||
B|-------------------------------------------------- ||
  

verse A: (where the drums enter)
"imagine there's no countries..."
F|-------------------------------||
C|-------------------------------||
G|------6---5--------------------|| x4
C|0~~-----------7-8~~~-----------||
B|-------------------------------||
  

pre-chorus A:
"imagine all the people..."
F|---------------------------------------------------------------||
C|---------------------------------------------------------------||
G|---------------------------------------------------------------|| x1
C|0~~-----7~~-----8~~-------------3~~-----4~~-----5~~------------||
B|---------------------------------------------------------------||
  
[ Tab from: http://www.guitartabs.cc/tabs/a/a_perfect_circle/imagine_btab.html ]
chorus:
"you may say Im a dreamer..."
F|-------------------------------||     
C|-------------------------------||
G|-------------------------------|| x3

C|5~~-----8~~-----5~~------------||
B|-------------------------------||
  
F|-------------------------------||
C|-------------------------------||
G|-------------------------------|| x1
C|5~~-----8~~-----0~~------------||
B|-------------------------------||
  

during guitar solo:
F|-------------------------------||
C|-------------------------------||
G|-------------------------------|| x4
C|0~~---7~~~~~-------------------||
B|-------------------------------||
  

pre-chorus B:
"imagine all the people..."
F|---------------------------------------------------------------||
C|---------------------------------------------------------------||
G|------------------------------------------------------//10~~---|| x1
C|0~~-----7~~-----8~~-------------3~~-----4~~-----5~~------------||
B|---------------------------------------------------------------||

chorus x1

verse B: 
"imagine no posessions..."
F|-------------------------------||
C|-------------------------------||
G|------6---5--------------------|| x1
C|0~~-----------7-8~~~-----------||
B|-------------------------------||
 
F|-------------------------------||
C|-------------------------------||
G|------6---5--------------------|| x1
C|0~~-----------7-88--88--88--88-||
B|----------------66--66--66--66-||
  
F|-------------------------------||
C|-------------------------------||
G|------6---5--------------------|| x2
C|0~~-----------7-8~~~-----------||
B|-------------------------------||69=]
Comments