A Perfect Circle - Crimes Chords & Tabs

 

Crimes Chords & Tabs

A Perfect Circle Chords & Tabs

Version: 1 Type: Bass Tab 0 ratings
1 star 2 stars 3 stars 4 stars 5 stars
comments

Crimes Bass Tab

Band- A Perfect Circle
Song- Crimes

  0:07
E  |-------------------------------------|
B  |-------------------------------------|
F# |---13-13-13--------------------------|
Db |-------------12-12-12-15-15----------|  (X3)


       0:19
E  |-------------------------------------|
B  |-------------------------------------|
F# |---13-13-13--------------17----------|
Db |-------------12-12-12-15-15----------|   (X4)


     0:35
E  |--------------------------------------|
B  |--------------------------------------|
F# |---13-13-13---------------------------|
Db |-------------12-12-12-15-15\----------|

[ Tab from: http://www.guitartabs.cc/tabs/a/a_perfect_circle/crimes_btab.html ]
      0:39
E  |----------------------------|-----------------------------------------------------|
B  |----------------------------|-----------------------------------------------------|
F# |----------------------------|------------------------13-13-13---------------------|
Db |-6-6-6-0-0-0-3-3-3------(X3)|- 6-6-6-0-0-0-3-3-3\-------------12-12-12-15-15------|


    0:55
E  |------------------------------|-----------------|-------------------------------|
B  |------------------------------|-----------------|-------------------------------|
F# |------------------------------|-----------------|-------------------------------|
D  |---6-6-6-0-0-0-3-3-3------(X4)|---0-0-0-3-3-3---|---6-6-6-0-0-0-3-3-3----(X3)---|


      Go back to this until it fades out
E  |-------------------------------------|
B  |-------------------------------------|
F# |---13-13-13--------------------------|
Db |-------------12-12-12-15-15----------|
Comments