A Perfect Circle - Choke Chords & Tabs

 

Choke Chords & Tabs

A Perfect Circle Chords & Tabs

Version: 1 Type: Tab 0 ratings
1 star 2 stars 3 stars 4 stars 5 stars
comments

Choke Tab

   
Band- A Perfect Circle
Song- Choke

Standard tuning.
This version of choke is a mix of guitar #1 & guitar #2
h= hammer
p= pull off
------------------------------------------------------------------------------------

e|-----22--2h3h3h3p3--2h3p3-3-0-----2---------|
B|-00-------------------------------------0---|
G|--------------------------------------------|
D|--------------------------------------------|
A|--------------------------------------------|
E|--------------------------------------------|

e|----22-------2h3h3h3p3--2h3p3-----2-------|
B|-0-------0------------------------------0-|
G|------------------------------------------| X 3 then have guitar 2 play during chorus and verse 
D|------------------------------------------|   and verse during chorus and verse 
A|------------------------------------------|
E|------------------------------------------|
    

          verse 
e|----------------------------------|
B|----------------------------------|
G|----------------------------------| X2
D|---------333333333333333322222222-|
A|-22222222222222222222222222222222-|
E|-22222222--------33333333---------| 


     
e|----------------|
B|----------------|
G|----------------| X8
D|-----33--33--22-|
A|-22--22--22--22-|
E|-22------33-----| 

e|----------------------------------|
B|----------------------------------|
G|----------------------------------| X5
D|---------333333333333333322222222-|
A|-22222222222222222222222222222222-|
E|-22222222--------33333333---------| 

e|----------------|
B|----------------|
G|----------------| X7
D|-----33--33--22-|
A|-22--22--22--22-|
E|-22------33-----| 
[ Tab from: http://www.guitartabs.cc/tabs/a/a_perfect_circle/choke_tab.html ]
          Chorus
e|-------------------------|
B|-------------------------|
G|-------------------------| X2
D|------3333333-3333-22222-|
A|-2222-2222222-2222-22222-|
E|-2222---------3333-------| 


e|----------------|
B|----------------|
G|----------------| X7
D|-----33--33--22-|
A|-22--22--22--22-|
E|-22------33-----| 

e|----------------------------------|
B|----------------------------------|
G|----------------------------------| X5
D|---------333333333333333322222222-|
A|-22222222222222222222222222222222-|
E|-22222222--------33333333---------| 

e|----------------|
B|----------------|
G|----------------| X5
D|-----33--33--22-|
A|-22--22--22--22-|
E|-22------33-----| 

e|-------------------------|
B|-------------------------|
G|-------------------------| X3
D|------3333333-3333-22222-|
A|-2222-2222222-2222-22222-|
E|-2222---------3333-------| 

e|----------------------------------|
B|----------------------------------|
G|----------------------------------| X3
D|---------333333333333333322222222-|
A|-22222222222222222222222222222222-|
E|-22222222--------33333333---------|

e|-------------------|
B|-------------------|
G|-------------------| X5
D|----------22-22-22-|
A|-22-22-22-22-22-22-|
E|-22-22-22----------|  

      Solo
e|--------------------------------|
B|--------------------------------|
G|-------0--------------0-----0---| X2 
D|-----3---3-----3----3---3-----3-|
A|---2-------2-2----2-------2-----|
E|-3--------------3---------------|

e|-------------------------|
B|-------------------------|
G|-------------------------| X4
D|------3333333-3333-22222-|
A|-2222-2222222-2222-22222-|
E|-2222---------3333-------| 

e|--------------------------------|
B|--------------------------------|
G|-------0--------------0-----0---| X4
D|-----3---3-----3----3---3-----3-|
A|---2-------2-2----2-------2-----|
E|-3--------------3---------------|
Comments