A Perfect Circle - Brena Chords & Tabs

 

Brena Chords & Tabs

A Perfect Circle Chords & Tabs

Version: 1 Type: Tab 1 rating
1 star 2 stars 3 stars 4 stars 5 stars
comments

Brena Tab

title: breƱa
artist: a perfecr circle
album: mer de noms
tabbed by: anna banana torres


intro
|----------------------------------------------------------------------|
|----------------------------------------------------------------------|
|------4----5\4--4------4------------4----5\4--4------4----------------|
|----2---2--2------2------2--------2---2--2------2------2--------------|
|--4--------4---------4----------4--------4---------4------------------|
|----------------------------------------------------------------------|


|----------------------------------------------------------------------|
|----------------------------------------------------------------------|
|-----------4------4---4-----------------4---4-------------------------|
|-----4/6-6---6--2---2---2---------4/6-6---6-6- repeat whole intro ----|
|--0--0----------0-----------------0---------0-------------------------|
|----------------------------------------------------------------------|


verse
|-----------0------------------------0-----------------------0--------|
|---------0-----------0------------0----------0------------0----------|
|-------6-----------6------------6----------6------------9------------|
|-----6------------------------6-----------------------9--------------|
|---4------------------------4-----------------------0----------------|
|---------------------------------------------------------------------|

[ Tab from: http://www.guitartabs.cc/tabs/a/a_perfect_circle/brena_tab.html ]
chorus
|---------------------------------------------------------------------|
|---------------------------------------------------------------------|
|--6-6-/-9-9-\-6-6-/-11-11----9--6----6-/-9-\-6-/-11-\-4-/-6----------|
|--6-6-/-9-9-\-6-6-/-11-11----9--6----x-/-x-\-x-/-x--\-x-/-x----------|
|--4-4-/-7-7-\-4-4-/-9--9---0-0--0----4-/-7-\-4-/-9--\-2-/-4----------|
|----------------------------------------------------- play it twice -|


|-----------------------------5----4----------------------------------|
|-----------------------------5----4----------------------------------|
|-13-13-\-9-9-/-11-11---2--4--7----6----------------------------------|
|-13-13-\-9-9-/-11-11---2--4--7----6----------------------------------|
|-11-11-\-7-7-/-9--9----0--2--5----4----------------------------------|
|---------------------------------------------------------------------|


verse electric 
|---------------------------------------------------------------------|
|---------------------------------------------------------------------|
|--6--/--8--/--9--/--11--/--13----------------------------------------|
|--x--/--x--/--x--/--x---/--x-----------------------------------------|
|--4--/--6--/--7--/--9---/--11----------------------------------------|
|--------------------------------------------------- play it 4 times -|


|---------------------------------------------------------------------|
|---------------------------------------------------------------------|
|--6----------6-/-9-\-8---4--6---------6------6-/-9--8---4--2---------|
|--6----------6-/-9-\-8---4--6---------6------6-/-9--8---4--2---------|
|--4----------4-/-7-\-6---2--4---------4------4-/-7--6---2--0---------|
|---------------------------------------------------------------------|
Comments