A Perfect Circle - Brena Solo Chords & Tabs

 

Brena Solo Chords & Tabs

A Perfect Circle Chords & Tabs

Version: 1 Type: Tab 2 ratings
1 star 2 stars 3 stars 4 stars 5 stars
comments

Brena Solo Tab

title: breƱa (solo)
artist: a perfecr circle
album: mer de noms
tabbed by: anna banana torres


Solo:
|--12--11--------------------------------------------11-10-9----------|
|-----------9---------------10-9--10-9-----------------------12-10-9--|
|-----------------9-11-9-----------------11-9----8--------------------|
|---------------------------------------------11----------------------|
|---------------------------------------------------------------------|
|---------------------------------------------------------------------|
[ Tab from: http://www.guitartabs.cc/tabs/a/a_perfect_circle/brena_solo_tab.html ]
|---------------------------------------------------------------------|
|-10-9----------------------------------------------------------------|
|------11-9-11^13-11-9-------------8-8h9p8----------------------------|
|----------------------11-----9-11----------11-9-11-9-11--------------|
|-------------------------/11-----------------------------------------|
|---------------------------------------------------------------------|

|---------------------------------------------------------------------|
|---------------------------------------------------------------------|
|------9p8---------11p8---------------9p8-----------------------------|
|-11-------9-9/11-------9-9/11---11-------9-9-------------------------|
|-------------------------------------------------9-11--11^12^11------|
|---------------------------------------------------------------------|	
Comments