A Perfect Circle - Brena Chords & Tabs

 

Brena Chords & Tabs

A Perfect Circle Chords & Tabs

Version: 1 Type: Bass Tab 0 ratings
1 star 2 stars 3 stars 4 stars 5 stars
comments

Brena Bass Tab

Standard Tuning

Intro:
G:-------13--------14/13-13----13----|
D:-----11---11-----11-------11----11-|
A:--13---------13--13----------------|
E:-----------------------------------|

G:------------13----------13----13--------------13----13-|
D:-13/15---15----15/13-11----11----11--13/15-15----15----|
A:-------------------------------------------------------|
E:-------------------------------------------------------|

Verse:
G |-------------------------------------------|
D |-------------------------------------------|
A |-------------------------------------------|
E |--6~-66--6~-66--0-6-6--6~-66--6~-66--0-66--|

G |-------------------------------------------|
D |-------------------------------------------|
A |-------------------------------------------|
E |--2~-22--2~-22--0-2-2--2~-22--2~-22--0-22--|

G |-------------------------------------------|
D |-------------------------------------------|
A |-------------------------------------------|
E |--6~-66--6~-66--0-6-6--9~-66--6~-66--0-66--|

G |-------------------------------------------|
D |*-----------------------------------------*|
A |*-----------------------------------------*|
E |--2~-22--2~-22--0-2-2--2~-22--2~-22--0-22--|

(Chorus)
G:---------------------------------|
D:---------------------------------|
A:----4-4-6-6-----------2~~~~~~~~~-|
E:-6-6-------2~--2-4-4-------------|

G:---------------------------------|
D:-3-3-----------------------------|
A:----4-4-6-6----------2~~~~~~~~~--|
E:----------0--2-4-4---------------|

Verse:
G |-------------------------------------------|
D |-------------------------------------------|
A |-------------------------------------------|
E |--6~-66--6~-66--0-6-6--6~-66--6~-66--0-66--|

G |-------------------------------------------|
D |-------------------------------------------|
A |-------------------------------------------|
E |--2~-22--2~-22--0-2-2--2~-22--2~-22--0-22--|

G |-------------------------------------------|
D |-------------------------------------------|
A |-------------------------------------------|
E |--6~-66--6~-66--0-6-6--9~-66--6~-66--0-66--|

G |-------------------------------------------|
D |-------------------------------------------|
A |-------------------------------------------|
E |--2~-22--2~-22--0-2-2--2~-22--2~-22--0-22--|

(Chorus)
G:--------------------------------|
D:--------------------------------|
A:----4-4-6-6-----------2~~~------|
E:-6-6-------2~--2-4-4------------|
[ Tab from: http://www.guitartabs.cc/tabs/a/a_perfect_circle/brena_btab.html ]
G:--------------------------------|
D:-3-3----------------------------|
A:----4-4-6-6----------2~~~~~~~~~-|
E:----------0--2-4-4--------------|

Bridge:
G |-------------------------------------------|
D |-------------------------------------------|
A |-------------------------------------------|
E |--6~-66--6~-66--0-6-6--6~-66--6~-66--0-66--|

G |-------------------------------------------|
D |-------------------------------------------|
A |-------------------------------------------|
E |--2~-22--2~-22--0-2-2--2~-22--2~-22--0-22--|

E |---------------------------------------------------|
D |---------------------------------------------------|
A |---------------------------------------------------|
E |--6~-66--6~-66--0-6/11-11--6~-66--9~---9--9--0-66--|

G |-------------------------------------------|
D |-------------------------------------------|
A |-------------------------------------------|
E |--2~-22--2~-22--0-2-2--2~-22--2~-22--0-22--|

Verse:
G |-------------------------------------------|
D |-------------------------------------------|
A |-------------------------------------------|
E |--6~-66--6~-66--0-6-6--6~-66--6~-66--0-66--|

G |-------------------------------------------|
D |-------------------------------------------|
A |-------------------------------------------|
E |--2~-22--2~-22--0-2-2--2~-22--2~-22--0-22--|

E |---------------------------------------------------|
D |---------------------------------------------------|
A |---------------------------------------------------|
E |--6~-66--6~-66--0-6/11-11--6~-66--9~---9--9--0-66--|

G |-------------------------------------------|
D |-------------------------------------------|
A |-------------------------------------------|
E |--2~-22--2~-22--0-2-2--2~-22--2~-22--0-22--|

(During Solo)
G |-------------------------------------------|
D |-------------------------------------------|
A |-------------------------------------------|
E |--6~-66--6~-66--0-6-6--6~-66--6~-66--0-66--|

G |-------------------------------------------|
D |-------------------------------------------|
A |-------------------------------------------|
E |--2~-22--2~-22--0-2-2--2~-22--2~-22--0-22--|

E |---------------------------------------------------|
D |---------------------------------------------------|
A |---------------------------------------------------|
E |--6~-66--6~-66--0-6/11-11--6~-66--9~---9--9--0-66--|

G |----------------------------------------------|
D |----------------------------------------------|
A |----------------------------------------------|
E |--2~-22--2~-22--0-2-2--2~-22--2~-22--0-22 6/--|

Thanks, please rate it after you learn it.
Comments