A Perfect Circle - Blue Chords & Tabs

 

Blue Chords & Tabs

A Perfect Circle Chords & Tabs

Version: 1 Type: Bass Tab 0 ratings
1 star 2 stars 3 stars 4 stars 5 stars
comments

Blue Bass Tab

Standard Tuning

Intro (00:22):
G||-----------||
D||-----------||
A||------3~~--||
E||---3-------||

 Verse|
G||------------||
D||------------||  x2    
A||-15~~-12~~--||
E||------------||		    

 Chorus:							   Fill 
G||----------------------------------------------------------|-------------|
D||----------------------------------------------------------|-------------|
A||---------------------------------------10-10-10-10-10-10--|-10/13-10/12-|
E||-12-12-12-12-12-12--10-10-10-10-10-10---------------------|-------------|

			..Continued..
								
G||----------------------------------------------------------|-----||
D||----------------------------------------------------------|-----|| 
A||---------------------------------------10-10-10-10-10-10--|-10*-||
E||-12-12-12-12-12-12--10-10-10-10-10-10---------------------|-----||
[ Tab from: http://www.guitartabs.cc/tabs/a/a_perfect_circle/blue_btab.html ]
 Interlude:
G||------------------------------------------------||
D||------------------------------------------------||
A||-7-7-7-7-7-7-7----------------------------------|| 
E||----------------8-8-8-8-8-8---5-5-5-5-5-5-5-5---||

 Verse (02:04)
 
 Chorus (02:15)

 Chorus
G||------------------------------------------------------------------||
D||------------------------------------------------------------------||
A||------------------------------------------------------------------||
E||-12-12-12-12-12-12-12-12--14-14-14-14-14-14-14--10-10-10-10-10-10-||

 Chorus 

  (2nd Interlude)
G||---------------14-----------14--------14------------|
D||----------------------------------------------------|
A||-(g10)/12-12-12--12-12-12-12--12-12-12--12-12-12/15-|
E||----------------------------------------------------|

       ..Continued..

G||-------------17--------------17-----------||
D||-------------------14---------------14----||  x2
A||-(g15)-15-15--15-15--15-15-15--15-15--15--||
E||------------------------------------------||

 (Outro)
G||-------||
D||-------||
A||-------|| 
E||-20/2--||


Thanks, please rate it after you learn it.
Comments