A Perfect Circle - 3 Libras Chords & Tabs

 

A Perfect Circle Chords & Tabs

Version: 7 Type: Tab 0 ratings
1 star 2 stars 3 stars 4 stars 5 stars
comments

3 Libras Tab

   
BAnd- A Perfect Circle
Song- 3 Libras

Gtr I (C# F# B E G# C#) - '-'
Gtr II (C# F# B E G# C#) - '-'
Gtr III (C# F# B E G# C#) - '-'

 Intro
  Moderately Slow Q.=48
 6/8
             Gtrs I, II
  W          E S S e E S S e   E S S E E S S E    E S S E E S S E
|--------||------------------|------------------|-------------------|
|--------||o-3-----3-3-----3-|-3-----3S7-----7\-|-3-----3-3-----3/--|
|--------||----0-------0-----|---0-------0------|---0-------0-------|
|--------||------------------|------------------|-------------------|
|--------||o-3---3---3---3---|-3---3---7---7----|-3---3---3---3-----|
|--------||------------------|------------------|-------------------|


  1.                       2.
   E S  S  E E S S S S      E S  S  E E S S E   E S S e E S S E
|-----------------------||--------------------|-----------------|
|-10------10S7-----7---o||-10------10S7-----7-|-8-----8-8-----8-|
|----0---------0--------||----0---------0-----|---0-------0-----|
|--------------------7--||--------------------|-----------------|
|-10---10----7---7-----o||-10---10----7---7---|-8---8---8---8---|
|-----------------------||--------------------|-----------------|


                   1st, 2nd Verses
                $
  E S S E  Q.       E S S S S E E E   E S E S E S S E  4x
|---------^0----||------------------|------------------||
|-8-----8-^8----||o-3-----3---3-----|-5-------6-------o||
|---0-----^0----||----0-----0---0---|---0---0---0------||
|---------^7----||----------------0-|-----4-------0----||
|-8---8---^8----||o-3---3-----------|-5-------------5-o||
|---------------||------------3-----|---------6--------||


            Pre-Chorus
 3/8        6/8
  E S S E    E S S S S E S S E   E S S E  S S  S S  e
|---------||-------------------|----------------------|
|-7-----7S||=3-----3---3-----3-|-3-----3S10--------10-|
|---0-----||---0-----0---0-----|---0--------0----0----|
|---------||-------------------|----------------------|
|-7---7---||-3---3-----3---3---|-3---3---10---10------|
|---------||-------------------|----------------------|


  E S S E E S S E   E S S E E S S E   E S S E E S S E
|-----------------|-0---------------|-----------------|
|-7-----7-7-----7-|---0-----7-----7-|-3-----3-3-----3-|
|---0-------0-----|-----0-----0-----|---0-------0-----|
|-----------------|-----------------|-----------------|
|-7---7---7---7---|-7-----7-7---7---|-3---3---3---3---|
|-----------------|-----------------|-----------------|


             To Coda
  E S E.  E S  S  E   E S S E E S E.   E. S E  Q  E
|-0---0-------------|----------------|--------^0----|
|-----3--10------10-|-7-----7-7------|-8----8-^8----|
|-----------0-------|---0-------0----|--------^0--0-|
|-------------------|----------------|--------^7----|
|-3-3----10---10----|-7---7---7---7--|-8--8---^8----|
|-------------------|----------------|--------------|


                               D.S. al Coda
  +H.        +H.        +H.        +H.
|----------|----------|----------|----------||
|----------|----------|----------|----------||
|-(0)------|-(0)------|-(0)------|-(0)------||
|----------|----------|----------|----------||
|----------|----------|----------|----------||
|----------|----------|----------|----------||


                                     Chorus
  &
  E S S E E S E.   E S S E E S S e    E S S e E S S S T T
|----------------|-----------------||-3-3-3-3-3-3-3-3-----|
|-7-----7-7------|-8-----8-8-----8-||-3-3-3-3-3-3-3-3-6-6-|
|---0-------0----|---0-------0-----||-4-4-4-4-4-4-4-4-0-0-|
|----------------|-----------------||-5-5-5-5-5-5-5-5-8-8-|
|-7---7---7---7--|-8---8---8---8---||-5-5-5-5-5-5-5-5-6-6-|
|----------------|-----------------||-3-3-3-3-3-3-3-3-----|


  E S S S S E S S S S   E S S e E S S S T T   E S S S S E S S S S
|---------------------|-3-3-3-3-3-3-3-3-----|----------------------|
|-6-6-6-6-x-----------|-3-3-3-3-3-3-3-3-6-6-|-6-6-6-6-x------------|
|-0-0-0-0-x-5-5-5-5-4-|-4-4-4-4-4-4-4-4-0-0-|-0-0-0-0-x-5-5-5-5-4--|
|-8-8-8-8-x-6-6-6-6-5-|-5-5-5-5-5-5-5-5-8-8-|-8-8-8-8-x-6-6-6-6-5--|
|-6-6-6-6-x-6-6-6-6-5-|-5-5-5-5-5-5-5-5-6-6-|-6-6-6-6-x-6-6-6-6-5--|
|-----------4-4-4-4-3-|-3-3-3-3-3-3-3-3-----|-----------4-4-4-4-3--|


  E S S e  E S S S S   E S S S S E S S S S   E S S e E S S S S
|-3-3-3-3-^3-3-3-3-x-|---------------------|-3-3-3-3-3-3-3-3-3-|
|-3-3-3-3-^3-3-3-3-x-|-6-6-6-6-x-----------|-3-3-3-3-3-3-3-3-3-|
|-4-4-4-4-^4-4-4-4-x-|-0-0-0-0-x-5-5-5-5-4-|-4-4-4-4-4-4-4-4-4-|
|-5-5-5-5-^5-5-5-5-x-|-8-8-8-8-x-6-6-6-6-5-|-5-5-5-5-5-5-5-5-5-|
|-5-5-5-5-^5-5-5-5-x-|-6-6-6-6-x-6-6-6-6-5-|-5-5-5-5-5-5-5-5-5-|
|-3-3-3-3-^3-3-3-3-x-|-----------4-4-4-4-3-|-3-3-3-3-3-3-3-3-3-|


                  Interlude
  E S S e Q.       E S S e E S S e   E S S E E S S E    E S S E E S S E
|--------------||------------------|------------------|-------------------|
|-6-6-6-6------||o-3-----3-3-----3-|-3-----3S7-----7\-|-3-----3-3-----3/--|
|-0-0-0-0-5----||----0-------0-----|---0-------0------|---0-------0-------|
|-8-8-8-8-6----||------------------|------------------|-------------------|
|-6-6-6-6-6----||o-3---3---3---3---|-3---3---7---7----|-3---3---3---3-----|
|---------4----||------------------|------------------|-------------------|


  1.                       2.
   E S  S  E E S S S S      E S  S  E E S S E   E S S e E S S E
|-----------------------||--------------------|-----------------|
|-10------10S7-----7---o||-10------10S7-----7-|-8-----8-8-----8-|
|----0---------0--------||----0---------0-----|---0-------0-----|
|--------------------7--||--------------------|-----------------|
|-10---10----7---7-----o||-10---10----7---7---|-8---8---8---8---|
|-----------------------||--------------------|-----------------|


                      Outro-Chorus
  Gtr III
  Q     E E E   S S    S S Q       Q.         E E   E  E    E    E
|-------------------||----------------------|----------------------|
|-------------------||----------------------|----------------------|
|-------9-9-9---9-7-||-7-7-7-------7--------|-7-7s==9--9----9----9-|
|-------x-x-x---x-x-||-x-x-x-------x--------|-x-x------x----x----x-|
|-------7-7-7---7-5-||-5-5-5-------5--------|-5-5s==7--7----7----7-|
|-------------------||----------------------|----------------------|
|
| Gtrs I, II
| E S S E E S S S S    E   S S S S E  S S E   E S S E  S S  S S  e
|-------------------||----------------------|----------------------|
|-8-----8-7-----7-8-||-3-------3---3------3-|-3-----3S10--------10-|
|---0-------0-------||-----0-----0----0-----|---0--------0----0----|
|-------------------||----------------------|----------------------|
|-8---8---7---7-----||-3-----3-----3----3---|-3---3---10---10------|
|-------------------||----------------------|----------------------|

[ Tab from: http://www.guitartabs.cc/tabs/a/a_perfect_circle/3_libras_tab_ver_7.html ]
  S  S  Q      Q.          E  E    +S      +S   E  E    S S
|-----------------------|-----------------------------------|
|-----------------------|-----------------------------------|
|-9s11-11-----11--------|-11-11---(11)b12-(11)-11-11---11s9-|
|-x-----x------x--------|--x--x-----------------x--x----x---|
|-7s=9--9------9--------|--9--9----(9)b10--(9)--9--9----9s7-|
|-----------------------|-----------------------------------|
|
| E     S S E  E  S S E    E  S S   E           E  S S  E
|-----------------------|--0--------------------------------|
|-7---------7--7------7-|-----0-----------------7-------7---|
|-------0---------0-----|-------0------------------0--------|
|-----------------------|-----------------------------------|
|-7-------7----7----7---|--7--------7-----------7----7------|
|-----------------------|-----------------------------------|


  E.   +S  E   E.   S +S  S
|---------------------------|
|---------------------------|
|-9----(9)s7---7----7-(7)-7-|
|-x------------x----x-----x-|
|-7----(7)s5---5----5-(5)-5-|
|---------------------------|
|
| E  S  S  S S E  S S  E
|---------------------------|
|-3--------3---3-------3----|
|----0-------0----0---------|
|---------------------------|
|-3-----3------3----3-------|
|---------------------------|


  E S E   S  S S  S E    S   S  E    +E.    Q.
|--------------------------|-------------------------|
|--------------------------|-------------------------|
|-7-7-7---7--7s9--9-9----9-|-9s11---(11)---11--------|
|-x-x-x---x--x----x-x----x-|-x--------------x--------|
|-5-5-5---5--5s7--7-7----7-|-7s=9----(9)----9--------|
|--------------------------|-------------------------|
|
| E S S E    S S  S S  e     E    S   S  E  E  S S E
|--------------------------|-------------------------|
|-3-----3S==10--------10---|-7-----------7--7------7-|
|---0----------0----0------|------0------------0-----|
|--------------------------|-------------------------|
|-3---3-----10---10--------|-7--------7-----7----7---|
|--------------------------|-------------------------|


   E.    S  +S   S  S  S  S  S  S  S
|------------------------------------|
|------------------------------------|
|-11----11-(11)-11-11-11-11-11-11-12-|
|--x-----x-------x--x--x--x--x--x--x-|
|--9-----9--(9)--9--9--9--9--9--9-10-|
|------------------------------------|
|
|  E  S  S   E      E     S  S  E
|--0---------------------------------|
|-----0-------------7-----------7----|
|--------0----------------0----------|
|------------------------------------|
|--7---------7------7--------7-------|
|------------------------------------|


   E  S  E    S  E  S  S  S  S
|------------------------------|
|------------------------------|
|-12-12-12s==16-16-16-16-16-16-|
|--x-----x-------x--x--x--x--x-|
|-10-10-10s==14-14-14-14-14-14-|
|------------------------------|
|
|  E  S  S S  S  E  S  S  E
|------------------------------|
|--3-------3-----3--------3----|
|-----0-------0-----0----------|
|------------------------------|
|--3-----3-------3-----3-------|
|------------------------------|


   E  S  E    S  S  S  S  S  S  S    E  S  E    S  E.   S  E
|---------------------------------|---------------------------|
|---------------------------------|---------------------------|
|-16-16-16---16-16-16-16-16-16s19-|-19-19-19---19-19S==12-12--|
|--x--x--x----x--x--x--x--x--x----|---------------------------|
|-14-14-14---14-14-14-14-14-14s17-|-17-17-17---17-17S==10-10--|
|---------------------------------|---------------------------|
|
|  E  S  S E     S  S  S  S  e       E  S  S E     E S  S  E
|---------------------------------|---------------------------|
|--3-------3S===10----------10----|--7-------7-----7-------7--|
|-----0-------------0-----0-------|-----0------------0--------|
|---------------------------------|---------------------------|
|--3-----3------10----10----------|--7-----7-------7----7-----|
|---------------------------------|---------------------------|


   E  S  E    S  E  E    S S
|----------------------------|
|----------------------------|
|-11-11-11---11-11-11---11s9-|
|--x--x--x----x--x--x----x---|
|--9--9--9----9--9--9----9s7-|
|----------------------------|
|
|  E  S  S E     E  S S  E
|--0-------------------------|
|-----0----------7-------7---|
|--------0----------0--------|
|----------------------------|
|--7-------7-----7----7------|
|----------------------------|


  E.   +S  E   E.   S +S  S   E S E   S  S S  S S  S S
|---------------------------|--------------------------|
|---------------------------|--------------------------|
|-9----(9)s7---7----7-(7)-7-|-7-7-7---7--7s9--9-9--9-7-|
|-x------------x----x-----x-|-x-x-x---x--x----x-x--x-x-|
|-7----(7)s5---5----5-(5)-5-|-5-5-5---5--5s7--7-7--7-5-|
|---------------------------|--------------------------|
|
| E  S  S  S S E  S S  E      E S S E    S S  S S  e
|---------------------------|--------------------------|
|-3--------3---3-------3----|-3-----3S==10--------10---|
|----0-------0----0---------|---0----------0----0------|
|---------------------------|--------------------------|
|-3-----3------3----3-------|-3---3-----10---10--------|
|---------------------------|--------------------------|


  E S E   S S S S S S S   S S S S S S Q.     +H.
|-----------------------|------------------|--------*|
|-----------------------|------------------|--------*|
|-7-7-7---7-7-7-7-7-7s5-|-5-5-5-5-5---2----|-(2)----*|
|-x-x-x---x-x-x-x-x-x---|-x-x-x-x-x-0-3----|-(3)----*|
|-5-5-5---5-5-5-5-5-5s3-|-3-3-3-3-3-0-3----|-(3)----*|
|-----------------------|-------------1----|-(1)----*|
|
| E S S E   E   S S E     E   S S E   Q.     +H.
|-----------------------|-------------0----|-(0)----*|
|-7-----7---7-------7---|-8-------8---8----|-(8)----*|
|---0-----------0-------|-----0-------0----|-(0)----*|
|-----------------------|-------------7----|-(7)----*|
|-7---7-----7-----7-----|-8-----8-----8----|-(8)----*|
|-----------------------|------------------|--------*|


Duration Legend
---------------
W - whole; H - half; Q - quarter; E - 8th; S - 16th; T - 32nd; X - 64th; a - acciaccatura
+ - note tied to previous; . - note dotted; .. - note double dotted
Uncapitalized letters represent notes that are staccato (1/2 duration)
Irregular groupings are notated above the duration line
Duration letters will always appear directly above the note/fret number it represents the
duration for.  Duration letters with no fret number below them represent rests.  Multi-
bar rests are notated in the form Wxn, where n is the number of bars to rest for.  Low
melody durations appear below the staff

Tablature Legend
----------------
 h   - hammer-on
 p   - pull-off
 b   - bend
 pb  - pre-bend
 r   - bend release (if no number after the r, then release immediately)
 /\  - slide into or out of (from/to "nowhere")
 s   - legato slide
 S   - shift slide
  - natural harmonic
[n]  - artificial harmonic
n(n) - tapped harmonic
 ~   - vibrato
 tr  - trill
 T   - tap
 TP  - trem. picking
 PM  - palm muting
\n/  - tremolo bar dip; n = amount to dip
 \n  - tremolo bar down
 n/  - tremolo bar up
/n\  - tremolo bar inverted dip
 =   - hold bend; also acts as connecting device for hammers/pulls
 <>  - volume swell (louder/softer)
 x   - on rhythm slash represents muted slash
 o   - on rhythm slash represents single note slash

Misc Legend
-----------
 |  - bar
||  - double bar
||o - repeat start
o|| - repeat end
*|  - double bar (ending)
 :  - bar (freetime)
 $  - Segno
 &  - Coda
Tempo markers -  = BPM(8/16=s8/s16), where s8 = swing 8ths, s16 = swing 16ths


***************************************************************************************
* Generated using Power Tab Editor by Brad Larsen - http://powertab.guitarnetwork.org *
***************************************************************************************
Comments