A New Beginning - Dark Sunrise Chords & Tabs

 

Dark Sunrise Chords & Tabs

A New Beginning Chords & Tabs

Version: 1 Type: Tab 0 ratings
1 star 2 stars 3 stars 4 stars 5 stars
comments

Dark Sunrise Tab

DARK SUNRISE


entrance riff...

0's are palmed...

--------------------------------------------------------------------
--------------------------------------------------------------------
--------------------------------------------------------------------
--------------------------------------------------------------------
--------------------------------------------------------------------
------------------------------------------------------7-------------
0-0-8-7-0-0-5-0-0-8-7-0-0-3-0-0-8-7-0-0-5-0-0-8-7-0-0---------------


riff hard 2:

0's are palmed

-------------------------------------------------------------------
-------------------------------------------------------------------
-------------------------------------------------------------------
0--0-10-9--0--0--7--0--0-10--9--0--0--5--0--0-10-9-----------------
0--0-10-9--0--0--7--0--0-10--9--0--0--5--0--0-10-9-----------------
0--0--8-7--0--0--5--0--0--8--7--0--0--3--0--0--8-7-----------------

-------------------------------
-------------------------------
--------------------------9----
0--0--7--0--0-10-9--0--0--9----
0--0--7--0--0-10-9--0--0--7----
0--0--5--0--0--8-7--0--0-------

then...

---------------------------------------------------
---------------------------------------------------
---------------------------------------------------
2--2--2--2--2--2--2--2--4--4--4--4--4--4--4--4-----
0--0--0--0--0--0--0--0--2--2--2--2--2--2--2--2-----
---------------------------------------------------

--------------------------
--------------------------
--------------------------
--9--9--9--9--9--9--9--9--
--7--7--7--7--7--7--7--7--
--------------------------

then...
[ Tab from: http://www.guitartabs.cc/tabs/a/a_new_beginning/dark_sunrise_tab.html ]
 -------------------------------------------------------------------
 -------------------------------------------------------------------
 9--9-------------------------------------------------------------
 9--9--x--x-10--9--9-pause-10-10--x--x--9--7--7----
 7--7--x--x--8--7--7-pause--8--8--x--x--7--5--5----
 ------x--x--8--7--7-pause -8--8--x--x--7--5--5----

next two played together...

--------------------------------
--------------------------------
--------------------------------
4-------2-----------------------          played first alone
2-------0---------2---------4---
------------------0---------2---

--------------------------------
--------------------------------
/7-------6--------4---------2---
--------------------------------           join in after the top
--------------------------------           one is played once  
--------------------------------

when 0 is played with 7 it is not plamed the rest is...

-----------------------------------------------------------------------
----0-----0---0-------0-----0---0-------0-----0---0--------------------
7-7-7-7-7-7-7-7---6-6-6-6-6-6-6-6---4-4-4-4-4-4-4-4--------------------
-----------------------------------------------------------------------
-----------------------------------------------------------------------
-----------------------------------------------------------------------


-----------------------
----0-----0---0--------
2-2-2-2-2-2-2-2--------
-----------------------
-----------------------
-----------------------


then...

 -----------------------------------------------------------------
 -----------------------------------------------------------------
 9--9-------------------------------------------------------------
 9--9--x--x-10--9--9--pause-10-10--x--x--9--7--7------------------
 7--7--x--x--8--7--7--pause -8--8--x--x--7--5--5------------------
 ------x--x--8--7--7- pause -8--8--x--x--7--5--5------------------

then you just let ring...


thats it for this song it is completly right.


Comments