A N D - The Time I Tried Chords & Tabs

 

The Time I Tried Chords & Tabs

A N D Chords & Tabs

Version: 1 Type: Bass Tab 0 ratings
1 star 2 stars 3 stars 4 stars 5 stars
comments

The Time I Tried Bass Tab

-------------------------------------------------------------------------------
			     The Time I Tried  A.N.D
-------------------------------------------------------------------------------

By:  Rus  DJ_Vasey@hotmail.com

THIS TAB IS SO DAMN RIGHT IT SCARES ME 150% CORRECT. I PLAY IT WITH MY BAND ALL THE TIME ITS MINT J

G|------------------------------------------------------------------------------|
D|------------------------------------------------------------------------------|
A|-----------------7-------5-------------------------------7--------3-----------|
E|--3------7------------------------------3-----------7-------------------------|
[ Tab from: http://www.guitartabs.cc/tabs/a/a_n_d/the_time_i_tried_btab.html ]
G|------------------------------------------------------------------------------|
D|------------------------------------------------------------------------------|
A|---------------------77777777--5555555---------------------7777777755555555--| X 8 
E|-33333333--77777777--------------------33333333---77777777--------------------|

G|-----------------------------------------------------------------------------------|
D|-----------------------------------------------------------------------------------|
A|---------------------77777777--5555555---------------------77-7------3-----2------|
E|-33333333--77777777--------------------3-3-3-3-3---77-7-77----------------------3--|


===============================================================================
Comments