A Lot Of Several Many Cuestions - Talking About The Night Chords & Tabs

 

Talking About The Night Chords & Tabs

A Lot Of Several Many Cuestions Chords & Tabs

Version: 1 Type: Tab 0 ratings
1 star 2 stars 3 stars 4 stars 5 stars
comments

Talking About The Night Tab

Talking about the Night
------------------------
A lot of Several Many Cuestions
san_pollo777@hotmail.com

  intro 
e/----------------------------------------------------------------------
b/----------------------------------6-6-6-6-6-6-6-6-6-6-6-6-6-6-6-6-----
g/--7-7-7-7-7-7-7-7-7-7-7-7-7-7-7-7-------------------------------------
d/----------------------------------------------------------------------
a/----------------------------------------------------------------------
e/----------------------------------------------------------------------


e/------------------------------------------------------------------0---
b/----------------------------------6-6-6-6-6-6-6-6-5-5--5-5--5-5---0---
g/--7-7-7-7-7-7-7-7-7-7-7-7-7-7-7-7---------------------------------0---
d/------------------------------------------------------------------x---
a/----------------------------------------------------------------------
e/----------------------------------------------------------------------


CHORUS
e/----------------------------------------------------------------------
b/----------------------------------------------------------------------
g/----------------------------------------------------------------------
d/--9-9-9-9-9-9-9-9-9-9-9-9-9-9-9-9-7-7-7-7-7-7-7-7-5-5-5-5-5-5-5-5-----
a/--7-7-7-7-7-7-7-7-7-7-7-7-7-7-7-7-5-5-5-5-5-5-5-5-5-5-5-5-5-5-5-5-----
e/--7-7-7-7-7-7-7-7-7-7-7-7-7-7-7-7-5-5-5-5-5-5-5-5-5-5-5-5-5-5-5-5-----

e/----------------------------------------------------------------------
b/----------------------------------------------------------------------
g/--------------------------------------------------7-7-7-7-7-7-0-0-----
d/--9-9-9-9-9-9-9-9-9-9-9-9-9-9-9-9-7-7-7-7-7-7-7-7-5-5-5-5-5-5-0-0-----
a/--7-7-7-7-7-7-7-7-7-7-7-7-7-7-7-7-5-5-5-5-5-5-5-5-5-5-5-5-5-5-0-0-----
e/--7-7-7-7-7-7-7-7-7-7-7-7-7-7-7-7-5-5-5-5-5-5-5-5---------------------
[ Tab from: http://www.guitartabs.cc/tabs/a/a_lot_of_several_many_cuestions/talking_about_the_night_tab.html ]
e/----------------------------------------------------------------------
b/----------------------------------------------------------------------
g/----------------------------------------------------------------------
d/--9-9-9-9-9-9-9-9-9-9-9-9-9-9-9-9-7-7-7-7-7-7-7-7-5-5-5-5-5-5-5-5-----
a/--7-7-7-7-7-7-7-7-7-7-7-7-7-7-7-7-5-5-5-5-5-5-5-5-5-5-5-5-5-5-5-5-----
e/--7-7-7-7-7-7-7-7-7-7-7-7-7-7-7-7-5-5-5-5-5-5-5-5-5-5-5-5-5-5-5-5-----

e/----------------------------------------------------------------------
b/----------------------------------------------------------------------
g/----------------------------------9--9--9--9--9--9--------------------
d/--9-9-9-9-9-9-9-9-9-9-9-9-9-9-9-9-7--7--7--7--7--7--------------------
a/--7-7-7-7-7-7-7-7-7-7-7-7-7-7-7-7-7--7--7--7--7--7--------------------
e/--7-7-7-7-7-7-7-7-7-7-7-7-7-7-7-7-------------------------------------


VERSE
e/----------------------------------------------------------------------
b/----------------------------------6-6-6-6-6-6-6-6-6-6-6-6-6-6-6-6-----
g/--7-7-7-7-7-7-7-7-7-7-7-7-7-7-7-7-7-7-7-7-7-7-7-7-7-7-7-7-7-7-7-7-----
d/----------------------------------------------------------------------
a/----------------------------------------------------------------------
e/----------------------------------------------------------------------


e/----------------------------------------------------------------------
b/----------------------------------6-6-6-6-6-6-6-6-5-5--5-5--5-5*------
g/--7-7-7-7-7-7-7-7-7-7-7-7-7-7-7-7-7-7-7-7-7-7-7-7---------------------
d/----------------------------------------------------------------------
a/----------------------------------------------------------------------
e/----------------------------------------------------------------------

chorus

VERSE--

guitar solo-- I don't know it.. honestly

Chorus

thats all

i promise i'll submit the solo soon
Comments