A Lot Of Several Many Cuestions - Copper Chords & Tabs

 

Copper Chords & Tabs

A Lot Of Several Many Cuestions Chords & Tabs

Version: 1 Type: Tab 0 ratings
1 star 2 stars 3 stars 4 stars 5 stars
comments

Copper Tab

COPPER
by A lot of Several Many Cu├ęstions

intro

e/------------------------------------------4-----
b/------------------------------------------t-----
g/------------------------------------------i-----
d/------------------------------------------m-----
a/------------------------------------------e-----
e/--7-7-10-7-7-10-7-7-9-7-7-9-7-7-9-7-------s-----

e/------------------------------------------4-----
b/------------------------------------------t-----
g/------------------------------------------i-----
d/------------------------------------------m-----
a/--7-7-10-7-7-10-7-7-9-7-7-9-7-7-9-7-------e-----
e/--7-7-10-7-7-10-7-7-9-7-7-9-7-7-9-7-------s-----

verse
[ Tab from: http://www.guitartabs.cc/tabs/a/a_lot_of_several_many_cuestions/copper_tab.html ]
e/---------------------------------------------------------------------------
b/------------------------------------------------------------------REPEAT---
g/---------------------------------------------------------------------------
d/---------------------------------------------------------------------------
a/--9-9-9-9-9-9-9-0-7-7-7-7-7-7-7-0-5-5-5-5-5-5-5-0-7-7-7-7-7-7-7-0----------
e/--7-7-7-7-7-7-7-0-9-9-9-9-9-9-9-0-7-7-7-7-7-7-7-0-5-5-5-5-5-5-5-0----------

Chorus

e/------------------------------------------4-----
b/------------------------------------------t-----
g/------------------------------------------i-----
d/------------------------------------------m-----
a/--7-7-10-7-7-10-7-7-9-7-7-9-7-7-9-7-------e-----
e/--7-7-10-7-7-10-7-7-9-7-7-9-7-7-9-7-------s-----

verse 
chorus

Comments