A Great Big World - Say Something Chords & Tabs

 

Say Something Chords & Tabs

A Great Big World Chords & Tabs

Version: 1 Type: Tab 0 ratings
1 star 2 stars 3 stars 4 stars 5 stars
comments

Say Something Tab

-------------------------------------------------------------------------------
                 Say Something - A Great Big World
-------------------------------------------------------------------------------

A unique tuning with a great sound, if you happen to have a Dashboard
Confessional-esque guitar laying around.

Tuning: DADDAD

Intro:

d|9--9--5--5--0--0--7--7--|
A|9--9--5--5--0--0--7--7--|
D|0--0--0--0--0--0--0--0--|
D|0--0--0--0--0--0--0--0--|
A|0--0--0--0--0--0--0--0--|
D|0--0--0--0--0--0--0--0--|

Chorus:
[ Tab from: http://www.guitartabs.cc/tabs/a/a_great_big_world/say_something_tab.html ]
     Say something....
d|9--9--5--5--0--0--7--7--|
A|9--9--5--5--0--0--7--7--|
D|0--0--0--0--0--0--0--0--|
D|0--0--0--0--0--0--0--0--|  x4
A|0--0--0--0--0--0--0--0--|
D|0--0--0--0--0--0--0--0--|

Bridge:

  And I...    small...    over my...  crawl...
d|0--0--0--0--0--0--0--0--0--0--0--0--0--0--7--7--|
A|0--0--0--0--4--4--4--4--2--2--5--5--0--0--7--7--|
D|0--0--0--0--0--0--0--0--2--2--5--5--0--0--0--0--|
D|0--0--0--0--0--0--0--0--0--0--0--0--0--0--0--0--|
A|0--0--0--0--0--0--0--0--0--0--0--0--0--0--0--0--|
D|0--0--0--0--0--0--0--0--0--0--0--0--0--0--0--0--|

REPEAT Bridge
REPEAT Chorus
REPEAT Bridge

Outro:
  
  Say something I'm...    Say something.
d|9--9--5--5--0--0--7--7--9-----5-----0|
A|9--9--5--5--0--0--7--7--9-----5-----0|
D|0--0--0--0--0--0--0--0--0-----0-----0|
D|0--0--0--0--0--0--0--0--0-----0-----0|
A|0--0--0--0--0--0--0--0--0-----0-----0|
D|0--0--0--0--0--0--0--0--0-----0-----0|
Comments