A Great Big World - Say Something Chords & Tabs

 

Say Something Chords & Tabs

A Great Big World Chords & Tabs

Version: 1 Type: Bass Tab 0 ratings
1 star 2 stars 3 stars 4 stars 5 stars
comments

Say Something Bass Tab

-----------------------------------------------------------------------------
                Say Something - A Great Big World & Christina Aguilera
-----------------------------------------------------------------------------
Tabbed by: Th0mas715

Start after about 4 counts (listen to the song and you'll get what I mean)

6x (optional: play this part a bit softer)
G|-------------|
D|-------------|
A|-14-10----12-|
E|-------10----|

2x
G|---------------------------|
D|---------------------------|
A|-14---9---10---10------12--|
E|-------------------10------|

4x
G|-------------|
D|-------------|
A|-14-10----12-|
E|-------10----|
[ Tab from: http://www.guitartabs.cc/tabs/a/a_great_big_world/say_something_btab.html ]
1x
G|---------------------------|
D|---------------------------|
A|-14---9---10---10------12--|
E|-------------------10------|

4x
G|-------------|
D|-------------|
A|-14-10----12-|
E|-------10----|

1x (optional: play this part a bit softer)
G|-------------|
D|-------------|
A|-14-10----12-|
E|-------10----|

End with (Optional: let the last note ring out)
G|-------------|
D|-------------|
A|-14-10-------|
E|---------10--|

I really like this song, so I took the bassnotes of piano sheet music and translated it 
into this bass tab.

Enjoy! And rate if you found this tab usefull :)

=============================================================================
Comments