A Global Threat - Whos To Blame Chords & Tabs

 

Whos To Blame Chords & Tabs

A Global Threat Chords & Tabs

Version: 1 Type: Tab 0 ratings
1 star 2 stars 3 stars 4 stars 5 stars
comments

Whos To Blame Tab

-------------------------------------------------------------------------------
			     WHO'S TO BLAME? - A GLOBAL THREAT
-------------------------------------------------------------------------------

Tabbed by: COLE, THE GUITARIST FROM "THE SYMPTOMS"
Email:SNAFOOZA839@AOL.COM - HTTP://WWW.THESYMPTOMS.CJB.NET

Tuning:eBGDAE
NOTE: i don't tab out the strumming just download the song or listen to the cd
INTRO
e|--------------------------|
B|--------------------------|
G|-4---4-------4---4--------|
D|-4---4-2--5--4---4-2--5---|
A|-2---2-2--5--2---2-2--5---|
E|-------0--3--------0--3---|

VERSE
e|---------------------------------------------------------------------------|
B|---------------------------------------------------------------------------|
G|-7-4---7-4---------7-4---7-4---------7-4---7-4---------7-4---7-4-----------|
D|-7-4---7-4--2---5--7-4---7-4--2---5--7-4---7-4--2---5--7-4---7-4-2---5-----|
A|-5-2---5-2--2---5--5-2---5-2--2---5--5-2---5-2--2---5--5-2---5-2-2---5-----|
E|------------0---3-------------0---3-------------0---3------------0---3-----|
[ Tab from: http://www.guitartabs.cc/tabs/a/a_global_threat/whos_to_blame_tab.html ]
CHROUS
e|--------------------------------------------|
B|--------------------------------------------|
G|-7---2--4---7---2--4---7---2--4---7---------|
D|-7---2--4---7---2--4---7---2--4---7----7----|
A|-5---0--2---5---0--2---5---0--2---5----7----|
E|---------------------------------------5----|

PER-VERSE?
e|----------------------------------------------------|
B|----------------------------------------------------|
G|-4-----4------7---10-11--4-----4------7---10-11-----|
D|-4--5--4--5---7---10-11--4--5--4--5---7---10-11-----|
A|-2--5--2--5---5---8--9---2--5--2--5---5---8--9------|
E|-2--3--2--3--------------2--3--2--3-----------------|

PRE-VERSE CONT.
e|----------------------------------------------------------------------|
B|---3-0-0-2----3-0-0-2--------11-----3-0-0-2-----3-0-0-2--------11-----|
G|-4---------4-4--------7---10-11---4---------4-4---------7---10-11-----|
D|----------------------7---10-11-------------------------7---10-11-----|
A|----------------------------------------------------------------------|
E|----------------------------------------------------------------------|

and repeat from the verse and through and end it on the B chord
===============================================================================
Comments