A Global Threat - Religious Scam Chords & Tabs

 

Religious Scam Chords & Tabs

A Global Threat Chords & Tabs

Version: 2 Type: Tab 0 ratings
1 star 2 stars 3 stars 4 stars 5 stars
comments

Religious Scam Tab

-------------------------------------------------------------------------------
			     Religious Scam - A Global Threat
-------------------------------------------------------------------------------
Tabbed by:Hannibal_Lectar
Email:Theking28411@yahoo.com

Tuning: Standard

Intro/Verse
e|---------------------------------------------------------------------------|
B|---------------------------------------------------------------------------|
G|---------------------------------------------------------------------------|
D|--4-4--4---8-8--8------------8---------------------------------------------|
A|--2-2--2---6-6--6---6-6--6---6--4------------------------------------------|
E|--------------------4-4--4------2------------------------------------------|

Chorus
e|---------------------------------------------------------------------------|
B|---------------------------------------------------------------------------|
G|---------------------------------------------------------------------------|
D|---------------------------------------------------------------------------|
A|-2-2--2---6-6--6---4-4--4--4-4--4------------------------------------------|
E|-0-0--0---4-4--4---2-2--2--2-2--2------------------------------------------|
[ Tab from: http://www.guitartabs.cc/tabs/a/a_global_threat/religious_scam_tab_ver_2.html ]
Bridge
e|---------------------------------------------------------------------------|
B|---------------------------------------------------------------------------|
G|---------------------------------------------------------------------------|
D|-4-4-4-4---8-8-8-8------------8--------------------------------------------|Play All Palm Muted
A|-2-2-2-2---6-6-6-6---6-6-6-6--6--4-----------------------------------------|
E|---------------------4-4-4-4-----2-----------------------------------------|


Intro  x4
Verse  x4
Chorus x4
Verse  x6
Bridge x4
Verse  x8



 _______
|Lyrics |
|_______|


Your bibles nothing more than fiction
Preists are practicing crucixition
Theres something i will say to you,
Those fucking stories are still not true
They brainwash you and take your money
With stories of christ all-mighty
Use the bible to cleanse yourself,
You can go fuck yourself!

Religion is a scam
Your moneys in their hands
Their lies are nothing new
Don't let them brainwash you!

Preaching preists are full of shit
Some are acholoics, some molest kids!
Donations in the name of god, 
what a fucking briliant fruad
A pregnant nun cleanchs her fists 
Say ten hail marys' and slits her wrists
Shes takes two lives to fix one sin 
cause she was brainwashed by religion!

Religion is a scam
You moneys in their hands
Their lies are nothing new
Don't let them brainwash you!

Your bibles nothing than fiction
Preists are practicing crucixition
Theres something i will say to you,
Those fucking stories are still not true
They brainwash you and take your money
With stories of christ all-mighty
Use the bible to cleanse yourself,
You can go fuck yourself!

===============================================================================
Comments