A Dozen Furies - Lost In A Fantasy Chords & Tabs

 

Lost In A Fantasy Chords & Tabs

A Dozen Furies Chords & Tabs

Version: 4 Type: Tab 0 ratings
1 star 2 stars 3 stars 4 stars 5 stars
comments

Lost In A Fantasy Tab

   
BAND:A DOZEN FURIES
TITLE:LOST IN A FANTASY
CD:RIP THE STARS DOWN EP

OK THE TUNING IS DROP C#

LOW TO HIGH C# G# C# F# A# D#

YOU NEED A LOT OF DISTORTION TO SOUND AS GOOD AS THEM IS KIND OF QUICK  BUT WITH
PRATICE YOU'LL GET THE SOUND ENJOY THIS IS LIKE 100% CORRECT

TABBED BY ROMAN LUNA ( DEFTROOM_1@YAHOO.COM.MX )

BIG FAN FROM MEXICO

INTRO

|----------------------------------------|----------------------------------|
|----------------------------------------|----------------------------------|
|--------10--9---12---10---9---9/10--10--|----------------------------------|
|0-0-0---x---x---x----x----x---x-x---x---|-3-3-3-3-3-3-3-3-7-7-7-7-7-7-7-7--|
|0-0-0---8---7---10---8----7---7/8---8---|-3-3-3-3-3-3-3-3-7-7-7-7-7-7-7-7--|
|0-0-0-----------------------------------|-3-3-3-3-3-3-3-3-7-7-7-7-7-7-7-7--|
PM....

|----------------------------------------|----------------------------------|
|----------------------------------------|----------------------------------|
|--------10--9---12---10---9---9/10--10--|----------------------------------|
|0-0-0---x---x---x----x----x---x-x---x---|-3-3-3-3-3-3-3-3-2-2-2-2-2-2-2-2--|
|0-0-0---8---7---10---8----7---7/8---8---|-3-3-3-3-3-3-3-3-3-3-3-3-3-3-3-3--|
|0-0-0-----------------------------------|-3-3-3-3-3-3-3-3-2-2-2-2-2-2-2-2--|
PM....


|----------------------------------------|-----------------------------------|
|---------------------------------------|------------------------------------|
|--------14--12--15--14--12---12/14--14--|--------------------------9/10/9---|
|0-0-0---x---x---x---x---x----x--x---x---|-3-3-3-3-3-3-3-3-7-7-7-7--x/x-/x---|
|0-0-0---12--10--13--12--10---10/12--12--|-3-3-3-3-3-3-3-3-7-7-7-7--7/8-/7---|
|0-0-0-----------------------------------|-3-3-3-3-3-3-3-3-7-7-7-7-----------|
PM....


|----------------------------------------|----------------------------------|
|----------------------------------------|----------------------------------|
|--------14--12--15--14--12---12/14--14--|----------------------------------|
|0-0-0---x---x---x---x---x----x--x---x---|-3-3-3-3-3-3-3-3-2-2-2-2-2-2-2-2--|
|0-0-0---12--10--13--12--10---10/12--12--|-3-3-3-3-3-3-3-3-3-3-3-3-3-3-3-3--|
|0-0-0-----------------------------------|-3-3-3-3-3-3-3-3-2-2-2-2-2-2-2-2--|
PM....


Pre-Verse

|----------------------------------------|----------------------------------|
|----------------------------------------|----------------------------------|
|----------------------------------------|----------------------------------|
|000-000---------------------------------|000-000---------------------------|
|000-000---------------------------------|000-000---------------------------|
|000-000---------------------------------|000-000---------------------------|
PM.. ...      			        PM... ...


Verse


|----------------I-----------------------------------|
|----------------I-----------------------------------|
|--------10--9~--I---10--9---12---10---9---9/10--10--|
|0-0-0---x---x---I---x---x---x----x----x---x-x---x---|
|0-0-0---8---7~--I---8---7---10---8----7---7/8---8---|
|0-0-0-----------I-----------------------------------|
PM....

Chorus:
[ Tab from: http://www.guitartabs.cc/tabs/a/a_dozen_furies/lost_in_a_fantasy_tab_ver_4.html ]
|----------------------------------------|----------------------------------|
|----------------------------------------|----------------------------------|
|--------10--9---12---10---9---9/10--10--|----------------------------------|
|0-0-0---x---x---x----x----x---x-x---x---|-3-3-3-3-3-3-3-3-7-7-7-7-7-7-7-7--|
|0-0-0---8---7---10---8----7---7/8---8---|-3-3-3-3-3-3-3-3-7-7-7-7-7-7-7-7--|
|0-0-0-----------------------------------|-3-3-3-3-3-3-3-3-7-7-7-7-7-7-7-7--|
PM....

|----------------------------------------|-----------------------------------|
|----------------------------------------|-----------------------------------|
|-------10--9---12---10---9---9/10--10---|-----------------------------------|
|0-0-0---x---x---x----x----x---x-x---x---|-3-3-3-3-3-3-3-3-2-2-2-2-2-2-2-2---|
|0 0-0---8---7---10---8----7---7/8---8---|-3-3-3-3-3-3-3-3-3-3-3-3-3-3-3-3---|
|0-0-0-----------------------------------|-3-3-3-3-3-3-3-3-2-2-2-2-2-2-2-2---|
PM....


|----------------------------------------|----------------------------------|
|----------------------------------------|----------------------------------|
|--------14--12--15--14--12---12/14--14--|--------------------------9/10/9--|
|0-0-0---x---x---x---x---x----x--x---x---|-3-3-3-3-3-3-3-3-7-7-7-7--x/x-/x--|
|0-0-0---12--10--13--12--10---10/12--12--|-3-3-3-3-3-3-3-3-7-7-7-7--7/8-/7--|
|0-0-0-----------------------------------|-3-3-3-3-3-3-3-3-7-7-7-7----------|
PM....


|----------------------------------------|----------------------------------|
|----------------------------------------|----------------------------------|
|--------14--12--15--14--12---12/14--14--|----------------------------------|
|0-0-0---x---x---x---x---x----x--x---x---|-3-3-3-3-3-3-3-3-2-2-2-2-2-2-2-2--|
|0-0-0---12--10--13--12--10---10/12--12--|-3-3-3-3-3-3-3-3-3-3-3-3-3-3-3-3--|
|0-0-0-----------------------------------|-3-3-3-3-3-3-3-3-2-2-2-2-2-2-2-2--|
PM....

Bridge:

       x8
|-------|
|-------|
|-------|
|0~--00-|
|0~--00-|
|0~--00-|
PM   ..

Post-Bridge
|-----------------------------|--------------------------------|
|-----------------------------|--------------------------------|
|-------------------------<5>-|--------------------------------|
|-0-0-0----0-0-0------<5>-----|-0-0-0-----|-7-7-7-7-0-8-8-8-8--|
|-0-0-0----0-0-0--<5>---------|-0-0-0-----|-7-7-7-7-0-8-8-8-8--|
|-0-0-0----0-0-0--------------|-0-0-0-----|-7-7-7-7-0-8-8-8-8--|
PM. . .    . . .                . . .


AND THEN SOME OCTAVES

--------------------------------------------------|
--------------------------------------------------|
----14------------------------------8-------------| YOU'LL GET OVER IT
----0--PLAY THIS A BUNCH OF TIMES---0-------------|
----12------------------------------10------------|
--------------------------------------------------|


Outro:


(3:05)
|----------------------------------------|
|----------------------------------------|
|----------------------------------------|  THIS PART MIGHT BE A LITTLE
|0-0-0--00000000-----3---0---5---3-------|  CONFUSE BUT HERE ARE THE BASIC
|0-0-0--00000000-----3---0---5---3-------|  NOTES ADD SOME HAMMER ON AND
|0-0-0--00000000-----3---0---5---3-------|  SOME PULL OFFS
PM . .

WELL THAT'S IT THE WHOLE MOTHER FUCKIN COOLEST ADF SONG PLEASE RATE IT IF YOU LIKE IT SEND ME E-MAILS
Comments