A Dozen Furies - Cycle Chords & Tabs

 

A Dozen Furies Chords & Tabs

Version: 3 Type: Tab 0 ratings
1 star 2 stars 3 stars 4 stars 5 stars
comments

Cycle Tab

   
A DOZEN FURIES - THE CYCLE
Tabber: c0z420

Tuning C# G# C# F# A# D#

INTRO: Guitar 1
||-------------------------------|
||-------------------------------|
||-------------------------------|
||-xx7---------------------------| x2
||-xx7--7-7-7-7-7-8-7-5-555555---|
||-xx7--7x7x7x7x7-8-7-5-555555---|
pm                     ........

Guitar 2:
||------------------------------------|
||-9--9--9--9-10--9---7--7--7--7------|
||-x--x--x--x--x--x---x--x--x--x------|
||-7--7--7--7--8--7---5--5--5--5------| x4
||------------------------------------|
||------------------------------------|
  .  .  .  .  .
||-------------|  ||------------------------------------| ||----|
||-------------|  ||------------------------------------| ||----|
||-------------|  ||------------------------------------| ||-5*-|
||-0-----------|  || LONG PICK SLIDE-)))))))))))))))))--| ||----|
||-0-LET RING--|  ||------------------------------------| ||----|
||-0-----------|  ||------------------------------------| ||----|

Verse:
||-------------------------------------------------------|
||-------------------------------------------------------|
||-----------------------------------10--9-10--12-10--9--|
||------------------------------------x--x--x---x--x--x--|
||-0-0--0---00000----0-0--0---00000---8--7--8--10--8--7--|
||-0-0--0---00000----0-0--0---00000----------------------|
   . .  .   .....    . .  .   .....
||------------------------------------------------------|
||------------------------------------------------------|
||------------------------------------14-13-14-17-14-13-|
||-------------------------------------x--x--x--x--x--x-|
||-0-0--0---00000----0-0--0---00000---12-11-12-15-12-11-|
||-0-0--0---00000----0-0--0---00000---------------------|
   . .  .   .....    . .  .   .....
[ Tab from: http://www.guitartabs.cc/tabs/a/a_dozen_furies/cycle_tab_ver_3.html ]
Pre-Chorus:
||-----------------|    ||------------------|
||-----------------|    ||------------------|
||-----------------|    ||------------------|
||-----------------| x2 ||------------------| x2
||-0--000-000--12--|    ||-0--000-000--10\--|  
||-0--000-000------|    ||-0--000-000-------|   
   .  ... ...              .  ... ...  
||-----------------|    ||-----------------|
||-----------------|    ||-----------------|
||-----------------|    ||-----------------|
||-----------------| x2 ||-----------------| x2
||-000-000-000--12-|    ||-000-000-000--10-|
||-000-000-000-----|    ||-000-000-000-----|
   ... ... ...             ... ... ...

Chorus
||-----------------------------------|
||-----------------------------------|
||-----------------------------------|
||-3-3-3-3~---7-5-7-3~-/-3-3-3-3--0~-| x2
||-3-3-3-3~---7-5-7-3~-/-3-3-3-3--0~-|
||-3-3-3-3~---7-5-7-3~-/-3-3-3-3--0~-|
 

BRIDGE 2
||-------------------|    ||------------------|       
||-------------------|    ||------------------|       
||-------------------|    ||------------------|       
||---------------10--| x4 ||----------------8-| x4    REPEAT
||-0-STURM FAST--12--|    ||-0-STURM FAST--10-|       
||-0-----------------|    ||-0----------------|       
   .                         .
||-------|
||-------|
||-------|
||-------|
||-0-0-0-|
||-0-0-0-|
   . . .
||-------------|    ||-------------|
||-------------|    ||-------------|
||-------------|    ||-------------|
||---------10--| x4 ||----------8--| x4  REPEAT
||-00--00--12--|    ||-00--00--10--|
||-00--00------|    ||-00--00------|    
pm ..  ..              ..  ..

SOLO:
||-------------------------------------------|
||-------------------------------------------|
||-----------------5-575^--------------------|
||--77-10-7-10^--7---------77-10-7-10-12*^---| x2
||-------------------------------------------|
||-------------------------------------------|
pm....           .        ...


OUTRO
||-------------------------------------------------------------------------------|
||-------------------------------------------------------------------------------|
||-------------------------------------------------------------------------------|
||-------------------------------------------------------------------------------| x2
||-3333333333-222222--555555555555-333222--333333333333-22222---5555555-33332222-|
||-3333333333-222222--555555555555-333222--333333333333-22222---5555555-33332222-|

||-------------|
||-------------|
||-------------|
||-------------|
||-0-0-0--0000-|
||-0-0-0--0000-|
Comments
A Dozen Furies chords | A Dozen Furies Cycle tab