A Dozen Furies - By All Means Chords & Tabs

 

A Dozen Furies Chords & Tabs

Version: 1 Type: Tab 0 ratings
1 star 2 stars 3 stars 4 stars 5 stars
comments

By All Means Tab

   
This is Really close.
Tabbed by Kevin Konopi

(x)- harmonic

e|----------------------|
B|----------------------|
G|-------------------4--|
D|-6-6-6-6-7-4-4-4-4-2--|   x3
A|-4-4-4-4-5-2-2-2-2----|
E|----------------------|

e|----------------|
B|----------------|
G|----------------|
D|----------------|
A|-5-5-5-5-5-5-5-5|
E|-3-3-3-3-3-3-3-3|

e|----------------------|
B|----------------------|
G|-------------------4--|
D|-6-6-6-6-7-4-4-4-4-2--|   x3
A|-4-4-4-4-5-2-2-2-2----|
E|----------------------|

e|----------------|
B|----------------|
G|----------------|
D|----------------|
A|-5-5-5-5-5-5-5-5|
E|-3-3-3-3-3-3-3-3|
[ Tab from: http://www.guitartabs.cc/tabs/a/a_dozen_furies/by_all_means_tab.html ]
e|----------------------|
B|----------------------|
G|-------------------4--|
D|-6-6-6-6-7-4-4-4-4-2--|   x3
A|-4-4-4-4-5-2-2-2-2----|
E|----------------------|

e|----------------|
B|----------------|
G|----------------|
D|----------------|
A|-5-5-5-5-5-5-5-5|
E|-3-3-3-3-3-3-3-3|

e|-----------------------------------------------------------------|
B|-----------------------------------------------------------------|
G|-----------------------------------------------------------------|
D|---------------------------------------------------------(5)-----|
A|-4-4-4-7-7-4-4-4-7-7-4-4-4-7-4-4-4-7-7-4-4-4-7-7-4-4-4-7----(5)--|
E|-----------------------------------------------------------------|
Comments