A Dozen Furies - An Idea And Some Rope Chords & Tabs

 

A Dozen Furies Chords & Tabs

Version: 1 Type: Bass Tab 0 ratings
1 star 2 stars 3 stars 4 stars 5 stars
comments

An Idea And Some Rope Bass Tab

The rythm is not really there, you have to listen to the song to figure it out, But its 
good enough guide to learn the song. And theres not even one on here so...
Tabbed by: Ben

|-------------------------------------------|
|-------------------------------------------|
|-------------------------------------------|
|0----888888833335-0--0---------------------|

|---------------------------------------------|
|---------------------------------------------|
|---------------------------------------------|
|----8888888101010101010----------------------|


|-------------------------------------------|
|-------------------------------------------|
|--1-0--------------------------------------|
|0-----5-3-2-3-5---88888833335--------------|


|-------------------------------------------|
|-------------------------------------------|
|--1-0--------------------------------------|
|0-----5-3-2-3-5---8888881010101010---------|

[ Tab from: http://www.guitartabs.cc/tabs/a/a_dozen_furies/an_idea_and_some_rope_btab.html ]
|-------------------------------------------|
|-------------------------------------------|
|-------------------------------------------| \
|000000000000000000-------------------------|  \
  						>X2
|-----------------------------------------------|     /
|-----------------------------------------------|   /
|--------------1-0---0-000---0-3333---0---------|
|000-3-2-0-3333----3------3-2-------3---5-------|

|-------------------------------------------|
|-------------------------------------------|
|-------------------------------------------|
|0-0-0-0-0-0-0-0-0-0-0-0-0-0-0-0-0-0--------|


|-------------------------------------------|
|-------------------------------------------|
|--------------1-0--------------------------|
|0-0-0-0-0-0-0----53------------------------|


|-------------------------------------------|
|-------------------------------------------|
|-------------------------------------------|
|00000--00000--00000--00000--12\------------|

|----------------------------------------|
|----------------------------------------|
|--------------1-0---0-000---0-3333---0--|
|000-3-2-0-3333----3------3-2-------3---5|

|-------------------------------------------|
|-------------------------------------------|
|-------------------------------------------|
|000000000000000000--0~---------------------|
Comments