A Day At The Races - I Smell Bacon Chords & Tabs

 

I Smell Bacon Chords & Tabs

A Day At The Races Chords & Tabs

Version: 1 Type: Tab 0 ratings
1 star 2 stars 3 stars 4 stars 5 stars
comments

I Smell Bacon Tab

   
The guy who has this nameoriginally let me submit a tab for him in his name. 
so this is my tab. this band sux, but this song is pretty cool.



e|---------------------|
B|---------------------|
G|---------------------|
D|7---------7----------|   <-do that twice for the intro.
A|--8-8-11-----8-8--10-|
E|-0----------0--------|

e|------------------------|
B|------------------------|
G|6x-----------6x---------|
D|6x-0x-6-6-7x-6x-0-6-6-9x|
A|4x-0x-6-6-7x-4x-0-6-6-9x|   
E|---0x-4-4-5x----0-4-4-7x|

[ Tab from: http://www.guitartabs.cc/tabs/a/a_day_at_the_races/i_smell_bacon_tab.html ]
e|---------------------------|
B|---------------------------|
G|6x-----------6x------------|
D|6x-0x-6-6-7x-6x-0x-6-6-9-7x|
A|4x-0x-6-6-7x-4x-0x-6-6-9-7x|
E|---0x-4-4-5x----0x-4-4-7-5x|


e|-----------------------------------------|
B|-----------------------------------------|
G|-----------------------------------------|
D|-0-5------0-6-----0-5-----0-6------------|  <-do that twice too.
A|6----6x-6-----6x-6----6x-6----6-5-6-5-6x-|
E|-----------------------------------------|

remember the (x) stands for palm mute.

N thats pretty much the whole song.
Comments