A Cursive Memory - Piano Song Chords & Tabs

 

Piano Song Chords & Tabs

A Cursive Memory Chords & Tabs

Version: 1 Type: Tab 0 ratings
1 star 2 stars 3 stars 4 stars 5 stars
comments

Piano Song Tab

A Cursive Memory
Piano Song


Piano Song (all exept solo)
[ Tab from: http://www.guitartabs.cc/tabs/a/a_cursive_memory/piano_song_tab.html ]
------------------------------------------------------------------------------|
------------------------------------------------------------------------------|
------------------------------------------------------------------------------|
----6-7-----6-7----6------6-7-----6-7-----7-------6------6-------6------------|
-9-------9-------9------7-------7--------7-----6-7----6-7---6-7-----9-7-------|
------------------------------------------------------------------------------|

repeat intro 4 times, chorus 1
------------------------------------------------------------------------------|
------------------------------------------------------------------------------|
6----4-----6----4-----9---6---9---6-----6----4-----6----4-----9--11--14-------|
x----x-----x----x-----x---x---x---x-----x----x-----x----x-----x---x---x-------|
4----2-----4----2-----7---4---7---4-----4----2-----4----2-----7---9--12-------|
------------------------------------------------------------------------------|
Comments