A - The Distance Chords & Tabs

 

The Distance Chords & Tabs

A Chords & Tabs

Version: 1 Type: Tab 0 ratings
1 star 2 stars 3 stars 4 stars 5 stars
comments

The Distance Tab

   
Author/Artist: A
Title: The Distance
Album: Hi-Fi Serious
Transcribed by: Elliot Withers
Email: e20_uk@hotmail.com

Dropped D Tunning

I can't tab the solo due to the sound used, so if n e 1 has it, send it here!

Intro

------------------------------------------------------------------------------
------------------------------------------------------------------------------
------------------------------------------------------------------------------
-\\\\0-10-10-10-10-10-10-10-10-0---10-10-10-10-10-10-10-10-3---10-10-10-10-10-
-\\\\0-10-10-10-10-10-10-10-10-0---10-10-10-10-10-10-10-10-3---10-10-10-10-10-
-\\\\0-10-10-10-10-10-10-10-10-0---10-10-10-10-10-10-10-10-3---10-10-10-10-10-
      "We       go       the   distance..."                                   

------------------------------------------------------------------------------
------------------------------------------------------------------------------
------------------------------5555--------------------------------------------
-10-10-10-0---3-5-3-5-0---355755550-10-10-10-10-10-10-10-10-0---10-10-10-10---
-10-10-10-0---3-5-3-5-0---355733330-10-10-10-10-10-10-10-10-0---10-10-10-10---
-10-10-10-0---3-5-3-5-0---3557----0-10-10-10-10-10-10-10-10-0---10-10-10-10---
                                                                              
[ Tab from: http://www.guitartabs.cc/tabs/a/a/the_distance_tab.html ]
------------------------------------------------------------------|-----------
------------------------------------------------------------------|-----------
------------------------------------------------------------------|-----------
-10-10-10-10-3---10-10-10-10-10-10-10-10-5-5-5-5-5-5-5-5-\\\\////-|-----------
-10-10-10-10-3---10-10-10-10-10-10-10-10-5-5-5-5-5-5-5-5-\\\\////-|-----------
-10-10-10-10-3---10-10-10-10-10-10-10-10-5-5-5-5-5-5-5-5-\\\\////-|-----------
 Verse                                                                        

------|-----|-----|--------------|--------------------------------------------
------|-----|-----|--------------|--------------------------------------------
------|-----|-----|-2x8---------*|--------------------------------------------
-2-x16|-5x16|-0x16|-2--\\\\////-*|--------------------------------------------
-2----|-5---|-0---|-0--\\\\////--|--------------------------------------------
-2----|-5---|-0---|----\\\\////--|--------------------------------------------
                                   Interlude                                  

--------------------|-------------|-------------------------------------------
--------------------|-------------|-------------------------------------------
--------------------|-------------|-4---4-4---4-4-7---7-7---7-7-2---2-2---2---
--------------------|-------------|-2---2-2---2-2-5---5-5---5-5-0---0-0---0---
--------------------|-------------|-------------------------------------------
--------------------|-------------|-------------------------------------------
 Repeat Intro/Chorus  Repeat Verse  p.m...................................... 

-----------------|-----------------|------------------------------------------
-----------------|-----------------|-1-1-1-1-1-1-1-1--------------------------
-2-7---7-7---7-7-|-----------------|-0-0-0-0-0-0-0-0--------------------------
-0-5---5-5---5-5-|-----------------|------------------------------------------
-----------------|-----------------|------------------------------------------
-----------------|-----------------|------------------------------------------
 ...............  Reapeat Interlude Solo(Guitarist 2 reapeats the chorus)
Comments