A - Starbucks Chords & Tabs

 

Starbucks Chords & Tabs

A Chords & Tabs

Version: 2 Type: Tab 0 ratings
1 star 2 stars 3 stars 4 stars 5 stars
comments

Starbucks Tab

   
Tabbed by marcus lubbock
Band - A
song - starbucks
Album - hi-fi serious
This is 100% correct and if you know 
Andrew ingram tell him he is a twat

chords used
Em    022xxx
E5    x799xx
B5    799xxx
F#m   244xxx
A5    577xxx
D5    x577xx
Bsus4 799977
B     799877
Dsus4 x57785
csus4 x35563
D     x57765
C     x35553
Intro part 1

e----12---------12----------
b-9-----12----------12------
g----------9-11--------11---
D---------------------------
A---------------------------
E---------------------------

Bass notes over intro r E-F#-G#-A

Intro part 2 
|Em|

Verse part1
intro
[ Tab from: http://www.guitartabs.cc/tabs/a/a/starbucks_tab_ver_2.html ]
verse part2
|E5| |B5| |F#m| |A5|

Pre chorus
|D5| B5|

Chorus
|E5| |B5| |F#m| |A|

verse
|E5| |B5| |F#m| |A5|

Pre chorus
|D5| B5|

Chorus
|E5| |B5| |F#m| |A|

Bridge part1
|Bsus4| |B| Bsus4| |B| |Dsus4| |D| |Dsus4| |D| |csus4| |C| |csus4| |C|

Bridge part 2 

e----12---------12----------
b-9-----12----------12------
g----------9-11--------11---
D---------------------------
A---------------------------
E---------------------------

Chorus
|E5| |B5| |F#m| |A|

Comments