A - Starbucks Chords & Tabs

 

Starbucks Chords & Tabs

A Chords & Tabs

Version: 1 Type: Bass Tab 0 ratings
1 star 2 stars 3 stars 4 stars 5 stars
comments

Starbucks Bass Tab

   
Artist:A
Track:Starbucks
Album:Hi-Fi Serious

This took me forever to sort. I think it's correct but this is 1 of my first tabs so go easy on it.

Intro
G:----------------------------------|
D:----------------------------------|x1
A:----------------------------------|
E:-00000000000000000000000000000000-|

1st Verse
G:------------|  |-------------------------------------|
D:------------|x2|-------------------------------------|x1
A:----2~------|  |----------22222222-------------------| 
E:-0~----2~-5~|  |-00000000----------22222222-55555555-|

G:-------------------------------------|
D:-------------------------------------|x1
A:----------22222222-55555555-22222222-|
E:-00000000----------------------------|

1st Chorus
G:-------------------|  |-------------------|
D:-------------------|x3|-------------------|x1
A:-------------------|  |----------00000000-|
E:-0---77--22--55555-|  |-00000000----------|

G:-------------------|
D:-------------------|x2
A:-------------------|
E:-0---77--22--55555-|

2nd Verse
G:-------------------------------------|
D:-------------------------------------|x3
A:----------22222222-------------------|
E:-00000000----------22222222-55555555-|

G:-------------------------------------|
D:-------------------------------------|x1
A:----------22222222-55555555-22222222-|
E:-00000000----------------------------|
[ Tab from: http://www.guitartabs.cc/tabs/a/a/starbucks_btab.html ]
2nd Chorus
G:-------------------|  |-------------------|
D:-------------------|x3|-------------------|x1
A:-------------------|  |----------00000000-|
E:-0---77--22--55555-|  |-00000000----------|

G:-------------------|
D:-------------------|x3
A:-------------------|
E:-0---77--22--55555-|

Bridge
G:----------------------------------------------------------
D:----------------------------------------------------------
A:-22222222222222222222222222222222-555555555555555555555555
E:----------------------------------------------------------

G:------------------------------------------|
D:------------------------------------------|x1`
A:55555555-22222222222222222222222222222222-|
E:------------------------------------------|

G:-------------|  |-------------------------------------|
D:-------------|x2|-------------------------------------|x2 
A:-------------|  |-------------------------------------|
E:-0~-2~-4~-5~-|  |-00000000-22222222-44444444-55555555-|

Final Chorus
G:-------------------|  |-------------------|  |Repeat|
D:-------------------|x3|-------------------|x1|Final |
A:-------------------|  |----------00000000-|  |Chorus|
E:-0---77--22--55555-|  |-00000000----------|  |Once  |

Outro
G:-------------------|  |--------------------------|
D:-------------------|x3|--------------------------|x1
A:-------------------|  |--------------------------| 
E:-0---77--22--55555-|  |-00000000-55555555-0~---0-|

I know it looks really long but this way it's easy to read and it's all in order for you.
Comments