A - Somethings Going On Chords & Tabs

 

Somethings Going On Chords & Tabs

A Chords & Tabs

Version: 2 Type: Tab 0 ratings
1 star 2 stars 3 stars 4 stars 5 stars
comments

Somethings Going On Tab

This is A's brillient new release single "somethings going on".
You are going to have to listen to to the track for timing and when to palm mute.


INTRO/OUTRO
e---------------------------------------------------------------------------------    
B---------------------------------------------------------------------------------
G-----7-7-7-7---------------------------------------------------------------------
D-----7-7-7-7---4-4-5-5--9-9-9-9---4-4-5-5---7-7-7-7---7-7-5-5--5-5-5-5---4-4-5-5-
A-----5-5-5-5------------9-9-9-9-------------7-7-7-7------------5-5-5-5-----------
E------------------------7-7-7-7-------------5-5-5-5------------3-3-3-3-----------
I think there may be something in the background, there might not be, but its a
one guitarist band besides the bass player, so if performed live this is all what
will be played.

VERSE

somethings going on.....
e---------------------------------------------------------------------------------    
B---------------------------------------------------------------------------------
G-----7---------------------------------------------------------------------------
D-----7------9-------7-----5------------------------------------------------------
A-----5------9-------7-----5------------------------------------------------------
E------------7-------5-----3------------------------------------------------------
palm muting is in this part

CHORUS
[ Tab from: http://www.guitartabs.cc/tabs/a/a/somethings_going_on_tab_ver_2.html ]
wear something to celebrate...                                somethings going on
e---------------------------------------------------------------------------------    
B---------------------------------------------------------------------------------
G-----9-----------------------------------------------------------6---------------
D-----9------9------6-----7---------------------------------------6-----9---------
A-----7------9------6-----7---------------------------------------4-----9---------        
E------------7------4-----5---------------------------------------------7---------


then its..
VERSE
CHORUS

then this
i wanna stand by you...
e---------------------------------------------------------------------------------    
B---------------------------------------------------------------------------------
G---5----------5------------------------------------------------------------------
D---5----7-----5----5-------------------------------------------------------------
A---3----7-----3----5-------------------------------------------------------------       
E--------5----------3-------------------------------------------------------------

then goes on to this

e---------------------------------------------------------------------------------    
B---------------------------------------------------------------------------------
G---7----------9------------------------------------------------------------------
D---7----7-----9----5-------------------------------------------------------------
A---5----7-----7----5-------------------------------------------------------------        
E--------5----------3-------------------------------------------------------------

Then its
CHORUS
INTRO/OUTRO

Thats its, very simple. Please rate this tab. enjoy.
Comments