A - Nothing Chords & Tabs

 

Nothing Chords & Tabs

A Chords & Tabs

Version: 3 Type: Tab 0 ratings
1 star 2 stars 3 stars 4 stars 5 stars
comments

Nothing Tab

   
Song:Noting
Artist:A
Tabbed By:Slater

|------------------------------------------------------------
|------------------------------------------------------------
|--3-3-3-3--3-3-3-3-6-6-6-6------------6-6-6-6-6-------------   x2
|--3-3-3-3--3-3-3-3-6-6-6-6-4-4--4-4-4-6-6-6-6-6-------------
|--1-1-1-1--1-1-1-1-4-4-4-4-4-4--4-4-4-4-4-4-4-4-------------
|---------------------------2-2--2-2-2-----------------------

then it goes
[ Tab from: http://www.guitartabs.cc/tabs/a/a/nothing_tab_ver_3.html ]
|------------------------------------------------------------
|------------------------------------------------------------
|--3-3-3-3--3-3-3-3-3-6-6-6-6-6------------------------------
|--3-3-3-3--3-3-3-3-3-6-6-6-6-6-4-4-4/12-4-4-4/12------------
|--1-1-1-1--1-1-1-1-1-4-4-4-4-4-4-4-4/12-4-4-4/12------------
|-------------------------------2-2-2/10-2-2-2/10------------

then u reapeat this a couple os times an it goes on2 the keyboard
(the bass pretty much follows).
this is the same all the way through corouse as well.
Comments