A - Nothing Chords & Tabs

 

Nothing Chords & Tabs

A Chords & Tabs

Version: 2 Type: Tab 0 ratings
1 star 2 stars 3 stars 4 stars 5 stars
comments

Nothing Tab

   
Band: A
Song: Nothing
Album: Hi-Fi Serious

-----------------------
-----------------------
-----------------------
-7-7-7-7-7-7-7-7-7-7---
-7-7-7-7-7-7-7-7-7-7---
-5-5-5-5-5-5-5-5-5-5---
[ Tab from: http://www.guitartabs.cc/tabs/a/a/nothing_tab_ver_2.html ]
------------------------
------------------------
------------------------
-10-10-10-10--3-3-3-3-3-
-10-10-10-10--3-3-3-3-3-
-8--8--8--8---1-1-1-1-1-

------------------------
------------------------
------------------------
-3-3-3-3-3--------------
-3-3-3-3-3--------------
-1-1-1-1-1--------------

Repeat
Comments