A - Nothing Chords & Tabs

 

Nothing Chords & Tabs

A Chords & Tabs

Version: 1 Type: Tab 0 ratings
1 star 2 stars 3 stars 4 stars 5 stars
comments

Nothing Tab

   
I searched every where for a tab for this but I could,nt
find one any where. So this is my attempt of writing my own. 

Artist: A
Song: Nothing
Tunning: Drop D

Tabbed by ME!!!!

Main Riff:


e|-------------------------------------------|
b|-------------------------------------------|
g|-------------------------------------------|
D|-4-4-4-4--4-4-4-4-4-4--7-7-7-7--0-0-0-0----|
A|-4-4-4-4--4-4-4-4-4-4--7-7-7-7--0-0-0-0----|
D|-4-4-4-4--4-4-4-4-4-4--7-7-7-7--0-0-0-0----|
[ Tab from: http://www.guitartabs.cc/tabs/a/a/nothing_tab.html ]
e|-----------------------------------------------|
b|-----------------------------------------------|
g|-----------------------------------------------|
D|-0-0-0-0-0-0--7-7-7-7--4-4-4-4--4-4-4-4-4-4----|
A|-0-0-0-0-0-0--7-7-7-7--4-4-4-4--4-4-4-4-4-4----|
D|-0-0-0-0-0-0--7-7-7-7--4-4-4-4--4-4-4-4-4-4----|

e|-------------------------------------|
b|-------------------------------------|
g|-------------------------------------|
D|-7-7-7-7--0-0-0-12-0-0-0-12-12-12----|
A|-7-7-7-7--0-0-0-12-0-0-0-12-12-12----|
D|-7-7-7-7--0-0-0-12-0-0-0-12-12-12----|

In the verse the next bit is played on the keyboard

e|--------------------------------------------------|
b|-7-5-7----7-5-7----7-5---5-5/7----7-5---5-5/7-----|
g|-----------------------7--------------7-----------|
D|--------------------------------------------------|
A|--------------------------------------------------|
D|--------------------------------------------------|

This is it really. There are a view variations to the same 
riffs but this is all I could be bothered to do. 

see ya!!!! 
Comments