A - Hi-fi Serious Chords & Tabs

 

Hi-fi Serious Chords & Tabs

A Chords & Tabs

Version: 1 Type: Bass Tab 0 ratings
1 star 2 stars 3 stars 4 stars 5 stars
comments

Hi-fi Serious Bass Tab

   
this is my first tab and i'm practically sure it's correct

Band : A
Song : HI-FI SERIOUS

Verse 1

G|---------------------------------------------------|
D|---------------------------------------------------|   play this 3 times
A|----33333333---------------------------------------|
E|------------33333333-000000000000000---------------|

Pre-chorus

G|---------------------------------------------------|
D|---------------------------------------------------|
A|----02222-02222-02222-02222------------------------|
E|---------------------------------------------------|

Chorus

G|---------------------------------------------------|
D|---------------------------------------------------|   play 2 times
A|----0/7h----0/7h----0/5h----0/5h----0h-------------|
E|---------------------------------------------------|

Verse 2

G|---------------------------------------------------|
D|---------------------------------------------------|   play 3 times
A|------------33333333-------------------------------|
E|----00000000--------3333333333333333---------------|

Pre-chorus

G|---------------------------------------------------|
D|---------------------------------------------------|   play 2 times
A|----0/7h----0/7h----0/5h----0/5h----0h-------------|
E|---------------------------------------------------|

Chorus

G|---------------------------------------------------|
D|---------------------------------------------------|   play 2 times
A|----0/7h----0/7h----0/5h----0/5h----0h-------------|
E|---------------------------------------------------|

Interlude
[ Tab from: http://www.guitartabs.cc/tabs/a/a/hi_fi_serious_btab.html ]
G|---------------------------------------------------|
D|---------------------------------------------------|   play this 7 times
A|----4-7-0h-----------------------------------------|
E|----------3h---------------------------------------|

Verse 3


Pre-chorus (2 times)

G|---------------------------------------------------|
D|---------------------------------------------------|   play 2 times
A|----0/7h----0/7h----0/5h----0/5h----0h-------------|
E|---------------------------------------------------|

Chorus (2 times)

G|---------------------------------------------------|
D|---------------------------------------------------|   play 2 times
A|----0/7h----0/7h----0/5h----0/5h----0h-------------|
E|---------------------------------------------------|

Outro 1

G|---------------------------------------------------|
D|----242h-222h---40h-000h---------------------------|   play 8 times
A|---------------------------------------------------|
E|---------------------------------------------------|

Outro 2

G|---------------------------------------------------|
D|----2h---------------------------------------------|
A|-----------------5-55-55-555-----------------------|
E|------0-00-00-000----------------------------------|

G|---------------------------------------------------|
D|---------------------------------------------------|
A|----2222222222222222222...-------------------------|
E|---------------------------------------------------|

Outro 2

G|---------------------------------------------------|
D|----2h---------------------------------------------|
A|-----------------5-55-55-555-----------------------|
E|------0-00-00-000----------------------------------|

And the END :

G|---------------------------------------------------|
D|----2-2-2h-----------------------------------------|
A|---------------------------------------------------|
E|---------------------------------------------------|
Comments