A - Good Time Chords & Tabs

 

Good Time Chords & Tabs

A Chords & Tabs

Version: 1 Type: Tab 0 ratings
1 star 2 stars 3 stars 4 stars 5 stars
comments

Good Time Tab

Band - A
Song - Good Time
Album - Unknown

Tuning - Drop D

Main Riff

e:-----------------------------------------:
b:-------3---------------------------------:
g:-------2-4-2-4-7----------------5-5~-5-5~:   
d:-12/-2-0-4-2-4-7--x3--ends on---5-5~-5-5~:
a:-12/-2-0-2-0-2-5----------------3-3~-2-2~:
D:-12/-2-0---------------------------------:

Verse

"Saw you in a Photograph..."

e:-------------------------:
b:----------------10-------:
g:-----9-----7------11-----:
d:---9----7----9~-----12-9-:
a:-7----5------9~----------:
D:-------------9~----------:

Chorus

"We've All got are problems..."

[ Tab from: http://www.guitartabs.cc/tabs/a/a/good_time_tab.html ]
e:-----------------------------------------:
b:-------3---------------------------------:
g:-------2-4-2-4-7----------------5-5~-5-5~:   
d:-12/-2-0-4-2-4-7--x3--ends on---5-5~-5-5~:
a:-12/-2-0-2-0-2-5----------------3-3~-2-2~:
D:-12/-2-0---------------------------------:


Breakdown

e:------------------------------------:
b:------------------------------------:
g:--------------------------------5~~~:
d:-2-0-0~-2-0-0~-12/-2-0-0~-2-0-0-5~~~:
a:-2-0-0~-2-0-0~-12/-2-0-0~-2-0-0-3~~~:
D:-2-0-0~-2-0-0~-12/-2-0-0~-2-0-0-----:

"Come on,Come on Yeah....."

e:---------------:
b:---------------:
g:---------------:
d:-5-5~-5-5~-2-2-:
a:-5-5~-5-5~-2-2-:
D:-3-3~-2-2~-2-2-:

Back To Chorus
Comments