98 Mute - Small Minds Chords & Tabs

 

Small Minds Chords & Tabs

98 Mute Chords & Tabs

Version: 1 Type: Bass Tab 0 ratings
1 star 2 stars 3 stars 4 stars 5 stars
comments

Small Minds Bass Tab

Intro/Verse
G |-------------------------------------------------------------------------|
D |-------------------------------------------------------------------------|    x8
A |--00000---88888888--------33333------------------------------------------|
E |-------------------------------------------33333333----------------------|

"Behind you!"
G|------------------------------------------------------------------------|
D|------------------------------------------------------------------------|      x2
A|---00000--88888888-----00000 888--3-3-----------------------------------|
E|------------------------------------------------------------------------|


G|------------------------------------------------------|
D|------------------------------------------------------|
A|--00-000-0000000-00-0000-00000000---------------------|        x1
E|------------------------------------------------------|
[ Tab from: http://www.guitartabs.cc/tabs/0-9/98_mute/small_minds_btab.html ]
Chorus/Verse
G |-------------------------------------------------------------------------|
D |-------------------------------------------------------------------------|    x4
A |--00000---88888888--------33333------------------------------------------|
E |-------------------------------------------33333333----------------------|
 "In front of you!"
G |------------------------------------------------------------------------|
D |------------------------------------------------------------------------|      x2
A |---00000--88888888-----00000 888--3-3-----------------------------------|
E |------------------------------------------------------------------------|


G|------------------------------------------------------|
D|------------------------------------------------------|
A|--00-000-0000000-00-0000-00000000---------------------|        x2
E|------------------------------------------------------|

 "Sometimes some things aren't exactly what they seem"
G|----------------------------------------------------------|
D|----------------------------------------------------------|
A|----0>--8>--3>--------------------------------------------|        x2
E|-------------------3>-------------------------------------|

 "Ask yourself if you'll survive!"
G |------------------------------------------------------------------------|
D |------------------------------------------------------------------------|      x3
A |---00000--88888888-----00000 888--3-3-----------------------------------|
E |------------------------------------------------------------------------|

G |------------------------------------------------------------------------|
D |------------------------------------------------------------------------|      x1
A |---00000--88888888-----00000 888--3-------------------------------------|
E |------------------------------------------------------------------------|

Eh...it sounds right, but if it's wrong email me please.
Jenjuro@hotmail.com
Comments