98 Mute - Dreams Chords & Tabs

 

Dreams Chords & Tabs

98 Mute Chords & Tabs

Version: 1 Type: Bass Tab 0 ratings
1 star 2 stars 3 stars 4 stars 5 stars
comments

Dreams Bass Tab

98 MUTE
SONG: DREAMS

------------------------------------------------------------------------------
------------------------------------------------------------------------------
6666--4-----------------------------------------------------------------------
------------4-----------------------------------------------------------------

-----------------------------------------------------------------
-----------------------------------------------------------------
--------------4----------------2---------------------------------
6666666------4444444---------------------------------------------
[ Tab from: http://www.guitartabs.cc/tabs/0-9/98_mute/dreams_btab.html ]
-----------------------------------------------------------------
-----------------------------------------------------------------
66-4-66-4--------------------------------------------------------
---------------66--3-222-----------------------------------------

------------------------------------------------------------------------------
------88--6---------------------------------------66-4------------------------
666---------8----------6666--8--6------444---------6----------4444--6--4------
------------------6666--------------------------------------4444--------------

-----------------------------------------------------------------
-----------------------------------------------------------------
66666666---------------------44444444----------------------------
----------------666666666--------------------44444444------------

I THINK THATS ALL OF IT
TABED BY: CHRIS
Comments