98 Degrees - I Do Chords & Tabs

 

I Do Chords & Tabs

98 Degrees Chords & Tabs

Version: 1 Type: Tab 0 ratings
1 star 2 stars 3 stars 4 stars 5 stars
comments

I Do Tab

   
                     98 Degrees-I do(Cherish you) 
               

      G/B                                  G/B                              
[ Tab from: http://www.guitartabs.cc/tabs/0-9/98_degrees/i_do_tab.html ]
|------------------2---3---10--|--------------------2---3---0---|
|----------3-------------------|------------3-------------------|
|------0-----------------------|--------0-----------------------|
|--0---------------------------|--------------------------------|
|------------------------------|----2---------------------------|
|3-----------------------------|0-------------------------------|


             C                                     D

|------------0-------7---7---0---|-------------0------3---5---7---|
|--------1---3-------3---3-----3-|----------------------------3---|
|----0---------------------------|----------------2---------------|
|--------------------------------|----------------------0---------|
|3-------------------------------|--------------------------------|
|--------------------------------|--------------------------------|


TabsMail...
http://tabsmail.8m.com
!Exclusive-TabsMail!

Comments