8stops7 - Question Everything Chords & Tabs

 

Question Everything Chords & Tabs

8stops7 Chords & Tabs

Version: 1 Type: Tab 0 ratings
1 star 2 stars 3 stars 4 stars 5 stars
comments

Question Everything Tab

   
Question Everything

      Cm   Cm/A   Cm(II) Cm(II)/D

e-----3-----3-------3--------3-----|
B-----3-----3-------3--------3-----|
G-----5-----5-------5--------5-----|
D-----5-----5-------5--------5-----|
A-----3-----3----------------5-----|
E-----3-----5----------------------|

The lyrics are pretty quick to pick up on,
so I won't type them unless you want em.
I LOVE this song. These guys are sooooo 
talented. I saw them in concert..Acoustic
It was wicked.

e-----3--X--3---3---3--|
B-----3--X--3---3---3--|
G-----5--X--5---5---5--|   Twice
D-----5--X--5---5---5--|
A-----3--X--3---3---3--|
E-----3--X--3---0---3--|
[ Tab from: http://www.guitartabs.cc/tabs/0-9/8stops7/question_everything_tab.html ]
e-----3--X--3---3---3--|
B-----3--X--3---3---3--|
G-----5--X--5---5---5--|   Twice
D-----5--X--5---5---5--|
A-----3--X--3---3---3--|
E-----5--X--5---3---5--|

e-----3--X--3---3---3--|
B-----3--X--3---3---3--|
G-----5--X--5---5---5--|   Twice
D-----5--X--5---5---5--|
A--------X-------------|
E--------X-------------|

e-----3--X--3---3---3--|
B-----3--X--3---3---3--|
G-----5--X--5---5---5--|   Twice
D-----5--X--5---5---5--|
A-----5--X--5---3---5--|
E--------X-------------|

Play each phrase above once through per line of
lyrics and you're good to go.
The whole song is different forms of Cm, I picked
up on it real quick. There's a chang in there somewhere
("No son of mine....) Where he just strums different 
forms of Am and Em, but I don't have my guitar right here 
with me, so You'll have to fend for yourselves.
During the chorus and prechorus, they speed up strumming
to 16th notes, it's easy, just move your hand up and down
really fast. It's a snap.
Comments