8 Stops 7 - Weekend Chords & Tabs

 

Weekend Chords & Tabs

8 Stops 7 Chords & Tabs

Version: 1 Type: Tab 0 ratings
1 star 2 stars 3 stars 4 stars 5 stars
comments

Weekend Tab

Weekend
8 Stops 7

I've been listening to this song a lot lately and 
I think I figured out some of it.  I'd say 90% correct.  

Intro/Verse:  Tricky rhythm

e---------------------------------------------------------------------------------------------------------------
b---------------------------------------------------------------------------------------------------------------
g--------5---5----5-5-5---------5---5----5-5-5----------5---5----5-5-5------------------------------------------
d--------7---7----7-7-7---------5---5----5-5-5----------3---3----3-3-3------------------------------------------  Repeat until
a---0----------------------------------------------------------------------0---2---3---5---7---5---3---2----0---  Pre-Chorus
e----------------------------4---------------------3------------------------------------------------------------


Pre-chorus Buildup:  Listen to the strokes.  
I'm not going to list them.

e-------------------
b--------3----------
g--------4----------
d--------5----------
a-------------------
e-------------------
[ Tab from: http://www.guitartabs.cc/tabs/0-9/8_stops_7/weekend_tab.html ]
Chorus:
	"Seven days over again...worked my way through another weekend
e-------------------------------------------------------------------------------------------------------------
b-------------------------------------------------------------------------------------------------------------
g-------------------------------------------------------------------------------------------------------------
d-------------------------------------------------------------------------------------------------------------
a--------------3---5---3----------------3~---------------------------3---5---3-----------------3~-------------  Repeat 2x
e----5--x------------------3---4---5---------3--5-------------x-----------------3---4---5----------3--5------- 

Bridge:

e------------------------------------------------------------------------------------------------------------
b------------------------------------------------------------------------------------------------------------
g------------------------------------------------------------------------------------------------------------
d------------------------------------------------------------------------------------------------------------
a------------------------------------3---5---3-------------------------------------3---5---3-----------------
e------5--x------0h3h5------0h3h5----------------3----5--------0h3h5-----0h3h5-------------------3----5------

Solo is key Am.  You could improvise over that bass line and it sounds awesome.

End with Intro

Thanks.  Adam.  Wanna share tabs?  Email me at toadies81@aol.com
Comments