8 Stops 7 - Question Everything Chords & Tabs

 

Question Everything Chords & Tabs

8 Stops 7 Chords & Tabs

Version: 3 Type: Tab 0 ratings
1 star 2 stars 3 stars 4 stars 5 stars
comments

Question Everything Tab

Email: rock0ut420@aol.com
I was fooling around, trying to find the harmonics, and the mini-lead parts to the breakdown.

Tuning: Standard Dropped d (dADGBe)
[ Tab from: http://www.guitartabs.cc/tabs/0-9/8_stops_7/question_everything_tab_ver_3.html ]
Play this on the second part of each verse (i.e.  1st verse "As I ask a simple question 
2nd verse "So forgive me if I come off sounding bitter"
e|---------------------------------------------------------------------------|
B|--12--13----------12--13-----------12--13--15-13-------12--13--------------|
G|---------12--------------12-----------------------------------12-----------|
D|---------------------------------------------------------------------------|
A|---------------------------------------------------------------------------|
d|---------------------------------------------------------------------------|
Then play the last chord of the verse at the end
e|--3------------------------------------------------------------------------|
B|--3------------------------------------------------------------------------|
G|--5------------------------------------------------------------------------|
D|--5------------------------------------------------------------------------|
A|--3------------------------------------------------------------------------|
d|--3------------------------------------------------------------------------|
This is the lead when it swtiches to the second chord of the breakdown  ("should I be 
 "as if you never understood" "you don't have to save me from myself" you get the point)
e|---------------------------------------------------------------------------|
B|---------------------------------------------------------------------------|
G|--9--10-9-7--5----4--5-----------------------------------------------------|
D|-----------------------5---------------------------------------------------|
A|---------------------------------------------------------------------------|
d|---------------------------------------------------------------------------|

This was a prety easy song to figure out, mostly cuz I love to play it. It's fun to 
out the background stuff.  Anyway, any questions email me at rock0ut420@aol.com  Screen 
the same
Comments