8 Stops 7 - Question Everything Chords & Tabs

 

Question Everything Chords & Tabs

8 Stops 7 Chords & Tabs

Version: 2 Type: Tab 0 ratings
1 star 2 stars 3 stars 4 stars 5 stars
comments

Question Everything Tab

Artist- 8 Stops 7
Song- Question Everything
Tabber- Iconoclast
Tuning- Drop D (Dadgbe)

Intro
-3-3--3--3-3-3-3-3--3--3-3-3-------------
-3-3--3--3-3-3-3-3--3--3-3-3-------------
-5-5--5--5-5-5-5-5--5--5-5-5-------------
-5-5--5--5-5-5-5-5--5--5-5-5-------------
-3-3--3--3-3-3-3-3--3--3-3-3-------------
---------------3-3--3--3-3-3-------------

Verse
-3-3--3--3-3-3-3-3--3--3-3-3--3-3--3--3-3-3-3-3--3--3-3-3----
-3-3--3--3-3-3-3-3--3--3-3-3--3-3--3--3-3-3-3-3--3--3-3-3----
-5-5--5--5-5-5-5-5--5--5-5-5--5-5--5--5-5-5-5-5--4--4-4-4----
-5-5--5--5-5-5-5-5--5--5-5-5--5-5--5--5-5-5-5-5--5--5-5-5----
-3-3--3--3-3-3-3-3--3--3-3-3--0-0--0--0-0-0------------------
---------------3-3--3--3-3-3---------------------------------

Prechorus (same as Verse, just a little different strum pattern)

Play this leading into the chorus
-3--3-3-3--3--3-3-3-3-3-
-3--3-3-3--3--3-3-3-3-3-
-5--5-5-5--5--5-5-5-5-5-
-5--5-5-5--5--5-5-5-5-5-
-3--3-3-3--3--3-3-3-3-3-
-3--3-3-3--3--3-3-3-3-3-
[ Tab from: http://www.guitartabs.cc/tabs/0-9/8_stops_7/question_everything_tab_ver_2.html ]
Chorus
-3-3--3-3-3-3-3-3-3-3--3-3-3-3-3-3--
-3-3--3-3-3-3-3-3-3-3--3-3-3-3-3-3--
-5-5--5-5-5-5-5-5-5-5--5-5-5-5-5-5--
-5-5--5-5-5-5-5-5-5-5--5-5-5-5-5-5--
-3-3--3-3-3-3-3-3-3-3--3-3-3-3-3-3--
------------------3-3--3-3-3-3-3-3--

-3-3--3-3-3-3-3-3-3-3--3-3-3-3-3-3--
-3-3--3-3-3-3-3-3-3-3--3-3-3-3-3-3--
-5-5--5-5-5-5-5-5-5-5--5-5-5-5-5-5--
-5-5--5-5-5-5-5-5-5-5--5-5-5-5-5-5--
-3-3--3-3-3-3-3-3-3-3--3-3-3-3-3-3--
------------------3-3--3-3-3-3-3-3--

-3-3--3-3-3-3-3-3-3-3--3-3-3-3-3-3--3----
-3-3--3-3-3-3-3-3-3-3--3-3-3-3-3-3--3----
-5-5--5-5-5-5-5-5-5-5--5-5-5-5-5-5--5----
-5-5--5-5-5-5-5-5-5-5--5-5-5-5-5-5--5----
-3-3--3-3-3-3-3-3-0-0--0-0-0-0-0-0--3----
------------------------------------3----

Verse

Prechorus

Chorus

Bridge (strumming not shown, pretty easy to figure out tho)
-0---------0---------
-0---------0---------
-4----5----4----5----
-2----3----2----3----
-0----3----0----3----
------3---------3----

continue that for a while, and end the bridge with this--
------------------
------------------
-5/7--------------
-3/5--------------
-3/5--------------
-3/5--------------

Verse

Chorus 2x



Enjoy.
Comments