8 Stops 7 - Better Chords & Tabs

 

Better Chords & Tabs

8 Stops 7 Chords & Tabs

Version: 1 Type: Tab 0 ratings
1 star 2 stars 3 stars 4 stars 5 stars
comments

Better Tab

   
	SONG: Better
	BAND: 8stops7
	ALBUM: In Moderation
 	TRANSCRIBED BY: Nathan Moore (nathanm19@hotmail.com)
	DATE: 11/18/00


	TUNING:  drop d (d,A,d,G,B,E)

INTRO:

E|-----------------------------------|
B|-----------------------------------|
G|-----------------------------------|
D|---0---2---0-0---3----0-0-0--4-----|x3
A|---0---2---0-0---3----0-0-0--4-----|
D|---0---2---0-0---3----0-0-0--4-----|
                        * * *

          on 4th time play this
E|-----------------------------------|
B|-----------------------------------|
G|--------------------7-7-7\--6\-5\-4|
D|---0---2---0-0---3--6-6-6\--5\-4\-3|
A|---0---2---0-0---3-----------------|
D|---0---2---0-0---3-----------------|

VERSE:
[ Tab from: http://www.guitartabs.cc/tabs/0-9/8_stops_7/better_tab.html ]
E|-----------------------------------|
B|-----------------------------------|
G|-----------------------------------|
D|----6-6---6--5-5--5--6-6--6--5-5---|
A|----6-6---6--5-5--5--6-6--6--5-5---|
D|----6-6---6--5-5--5--6-6--6--5-5---|

CHORUS:

E|--------------------------------------------|
B|--------------------------------------------|
G|--------------------------------------------|
D|---0----8-7---0----8-7---5----3-5----3------|x2
A|---0----8-7---0----8-7---5----3-5----3------|
D|---0----8-7---0----8-7---5----3-5----3------|

INTERLUDE:

E|------------------------------------------------------|
B|------------------------------------------------------|
G|------------------------------------------------------|
D|-0-0-0-0---0-0-0-0-0-0h2h3--0-0-0-0---0-0-0-0-0--3----|
A|-0-0-0-0---0-0-0-0-0-0h2h3--0-0-0-0---0-0-0-0-0--3----|
D|-0-0-0-0---0-0-0-0-0-0h2h3--0-0-0-0---0-0-0-0-0--3----|




Comments