89 Dart - School's Out Chords & Tabs

 

School's Out Chords & Tabs

89 Dart Chords & Tabs

Version: 1 Type: Tab 1 rating
1 star 2 stars 3 stars 4 stars 5 stars
comments

School's Out Tab

   
Song: School`s out
Instrument: Gitar
Band: Dart 89
Made by: blink182_35@hotmail.com

Intro: 
e|-----------------------------------------------------------------------|
B|-----------------------------------------------------------------------|
G|-----------------------------------------------------------------------|
D|-----------------------3-----3---3-------------------------3-----3---3-|
A|-----3-----3---3--1-1---1-1----1--------3-----3---3----1-1---1-1---1---|
E|-1-1---1-1---1----------------------1-1---1-1---1----------------------|
                                                                 
e|-----------------------------------------------------------------------|
B|-----------------------------------------------------------------------|
G|----------------------------------------5-----5---5--------------------|
D|-----------------------3-----3---3--3-3---3-3---3--------3-----3---3---|
A|-----3-----3---3--1-1---1-1----1---------------------1-1---1-1---1-----|
E|-1-1---1-1---1---------------------------------------------------------|

e|----------------------------------|
B|----------------------------------|
G|------------------3-3-3-3-3-3-3-3-|
D|-3-3-3-3-3-3-3-3--3-3-3-3-3-3-3-3-| (x2)
A|-3-3-3-3-3-3-3-3--1-1-1-1-1-1-1-1-|
E|-1-1-1-1-1-1-1-1------------------|

[ Tab from: http://www.guitartabs.cc/tabs/0-9/89_dart/schools_out_tab.html ]
e|------------------------------------------------------------|
B|------------------------------------------------------------|
G|-5-5-5-5-5-5-5-5--2-2-2-2-2-2-2-2---------------------------|
D|-5-5-5-5-5-5-5-5--2-2-2-2-2-2-2-2--3-3-3-3-3-3-3-3--5-------| (x2)
A|-3-3-3-3-3-3-3-3--0-0-0-0-0-0-0-0--3-3-3-3-3-3-3-3--5-(hold)|
E|-----------------------------------1-1-1-1-1-1-1-1--3-------|

Vers:
e|---|        
B|---|        
G|-5-|        
D|-5-| (x1)   
A|-3-|        
E|---|        

Ref:                                                 (1ga)   (2ga)
e|---------------------------------------------------|----|---------|
B|---------------------------------------------------|----|---------|
G|-5-5-5-5-5-5-5-5--2-2-2-2-2-2-2-2------------------|----|-------5-|                      
D|-5-5-5-5-5-5-5-5--2-2-2-2-2-2-2-2--3-3-3-3-3-3-3-3-|-5--|-2-3-2-5-| 
A|-3-3-3-3-3-3-3-3--0-0-0-0-0-0-0-0--3-3-3-3-3-3-3-3-|-5--|-------3-|
E|-----------------------------------1-1-1-1-1-1-1-1-|-3--|---------|

Vers og Ref igjen.

Bru:
e|---------------------------------------------------------|
B|---------------------------------------------------------|
G|-----------------3--3-3-3-3-3-3-3--5--5-5-5-5-5-5-5---3--|
D|-3--3-3-3-3-3-3--3--3-3-3-3-3-3-3--5--5-5-5-5-5-5-5---3--| (x3) 
A|-3--3-3-3-3-3-3--1--1-1-1-1-1-1-1--3--3-3-3-3-3-3-3---1--|
E|-1--1-1-1-1-1-1------------------------------------------|

Ref. (2ga)noen ganger.
Comments