88 Fingers Louie - Wont Stay Late Chords & Tabs

 

Wont Stay Late Chords & Tabs

88 Fingers Louie Chords & Tabs

Version: 1 Type: Bass Tab 0 ratings
1 star 2 stars 3 stars 4 stars 5 stars
comments

Wont Stay Late Bass Tab

88 Fingers Louie
Won't Stay Late
Bass

G|--------------------------------------|
D|----6-6--7-7--9-9--7-7--6-6-----------|
A|--7--------------------------9-9--7-7-|
E|--------------------------------------|
[ Tab from: http://www.guitartabs.cc/tabs/0-9/88_fingers_louie/wont_stay_late_btab.html ]
G|--------------------------------------|
D|----5-5--4-4--2-2----7-7--6-6--4-4----|
A|--3----------------5------------------|
E|--------------------------------------|

Any questions, comments, or criticism email at
redweasel56@usa.net
Comments