88 Fingers Louie - Two Face Bastard Chords & Tabs

 

Two Face Bastard Chords & Tabs

88 Fingers Louie Chords & Tabs

Version: 1 Type: Bass Tab 0 ratings
1 star 2 stars 3 stars 4 stars 5 stars
comments

Two Face Bastard Bass Tab

   
band: 88 fingers louie
song:  Two face bastard
album: its a compilation by fearless records  i think its called  serial 
killer

g---------------------------------------------------------
d---------------------------------------------------------
a:0-3-0-3-0-3----0-3-0-3-0-3----0-3-0-3-0-3
e:---------------- 1 --------------- 3 -----------------1 
 
g----------------
d----------------
a:---------------
e: 333-11111

[ Tab from: http://www.guitartabs.cc/tabs/0-9/88_fingers_louie/two_face_bastard_btab.html ]
g---------------------------------------------------------
d---------------------------------------------------------
a:0-3-0-3-0-3----0-3-0-3-0-3----0-3-0-3-0-3
e:---------------- 1 --------------- 3 -----------------1 
 
g----------------
d----------------
a:---------------
e: 333-11111

g
d
a:----- 33-------------------33 
--------------------33-------------------------------
e:11--------3333----11--------3333----11-----------3333--------333-11111 
 then chorus starts this is intro but if you have information on it email me 
at johnrottin        

come on tho i have only been playeing about 7 months and thid song if fucking 
fast  but i think chorus goes somthing like the intro  just   up and down 
strokes of the pic and hammer the 3  just like chick magnet



Comments