88 Fingers Louie - Pent Up Chords & Tabs

 

Pent Up Chords & Tabs

88 Fingers Louie Chords & Tabs

Version: 1 Type: Bass Tab 0 ratings
1 star 2 stars 3 stars 4 stars 5 stars
comments

Pent Up Bass Tab

song: Pent up
band: 88 fingers Louie
album: behind bars
tabbed by: Carlos Pino


G|----------------------------------|----------------------|--------------------|-------------------|
D|----------------------------------|---------------------|---------------------|5-5-5--5-5-5-5-5|
A|-10-10-10--10-10-10-10-|-9-9-9--9-9-9-9-|-7-7-7--7-7-7-7-|----------------|
E|----------------------------------|---------------------|---------------------|----------------|


Verse:
                                                 x 2
G|-----------------------------------------|---------------------------|
D|---------------------------------------|--------------5-5-5-5-5-|
A|-10-10-10-10-10--9-9-9-9-9-|-7-7-7-7-7--------------|
E|---------------------------------------|-------------------------|
[ Tab from: http://www.guitartabs.cc/tabs/0-9/88_fingers_louie/pent_up_btab.html ]
Chorus:
G|-------------------------------------------|-------------------------------------------|
D|------------------------------------------|--------------------------------------------|
A|----------------------5-5-5--5-5-5-5-|-7-7-7--7-7-7-7--7-7-7--7-7-7-7---|
E|--7-7-7--7-7-7-7---------------------|--------------------------------------------|

G|----------------------------------------------------------------------------------------
D|----------------------------------------------------------------------------------------
A|----------------------5-5-5--5-5-5-5--3-3-3--3-3-3-3--3-3-3--3-3-3-3----
E|-7-7-7--7-7-7-7-------------------------------------------------------------------

Repeat Verse Riff
Repeat Chorus Riff

Bridge to Solo:
                                        x 3
G|--------------------------------------------------------------------------------------------------|
D|-----------------------------------------------------------------------------------------------|
A|-10-10-10-----------------------------------------10-10-10------------------------------------
E|---------------10-10-10-10--7/-8--8--8--8--------------------10-10-10-10---8---7~~~|






Comments