88 Fingers Louie - Inside Myself Chords & Tabs

 

Inside Myself Chords & Tabs

88 Fingers Louie Chords & Tabs

Version: 1 Type: Tab 0 ratings
1 star 2 stars 3 stars 4 stars 5 stars
comments

Inside Myself Tab

   
-------------------------------------------------------------------------------
			INSIDE MYSELF - 88 Fingers Louie
-------------------------------------------------------------------------------

Tabbed by: strungout777
Email:manuel_ramones4life@gmx.at

Intro: 2x
e|---------------------------------------------------------------------------|
B|---------------------------------------------------------------------------|
G|---------------------------------------------------------------------------|
D|---------------------------------------------------------------------------|
A|--55h77p5-55h77p5-55h77p5-55h77p5-55h77p5-55h77p5-55h77p5------------------|
E|---------------------------------------------------------------------------|

e|---------------------------------------------------------------------------|
B|---------------------------------------------------------------------------|
G|---------------------------------------------------------------------------|
D|---------------------------------------------------------------------------|
A|--55h77p5-55h77p5-55h77p5-55h77p5-55h7-7p5-55h77p5-55h77p5---10--9--5--7---|
E|---------------------------------------------------------------------------|

Pre-Verse:
e|---------------------------------------------------------------------------|
B|---------------------------------------------------------------------------|
G|---------------------------------------------------------------------------|
D|--9~--10~--12~--10~--------------------------------------------------------|
A|--7~--10~--12~--10~--------------------------------------------------------|
E|-------8~--10~---8~--------------------------------------------------------|

Verse: 4x
e|---------------------------------------------------------------------------|
B|---------------------------------------------------------------------------|
G|---------------------------------------------------------------------------|
D|--999999-101010101010-121212121212-1010-1212-------------------------------|
A|--777777-101010101010-121212121212-1010-1212-------------------------------|
E|----------8-8-8-8-8-8-101010101010--8-8-1010-------------------------------|
[ Tab from: http://www.guitartabs.cc/tabs/0-9/88_fingers_louie/inside_myself_tab.html ]
Chorus:
Part1: 3x
e|---------------------------------------------------------------------------|
B|---------------------------------------------------------------------------|
G|---------------------------------------------------------------------------|
D|--999-101010--5--12--7-10--------------------------------------------------|
A|--777-101010--5--12--7-10--------------------------------------------------|
E|-------8-8-8--3--10--5--8--------------------------------------------------|
Part2: 1x
e|---------------------------------------------------------------------------|
B|---------------------------------------------------------------------------|
G|---------------------------------------------------------------------------| 
D|--999-101010--5~-----------------------------------------------------------|
A|--777-101010--5~-----------------------------------------------------------|
E|-------8-8-8--3~-----------------------------------------------------------|

Verse: 4x

Chorus:

Intro: 2x

Pre-Verse:

Bridge: 2x
e|---------------------------------------------------------------------------|
B|---------------------------------------------------------------------------|
G|---------------------------------------------------------------------------|
D|--99----1010----1212----1010-1212------------------------------------------|
A|--77----1010----1212----1010-1212------------------------------------------|
E|--------8-8-----1010-----8-8-1010------------------------------------------|

Verse: 2x

Outro:
e|---------------------------------------------------------------------------|
B|---------------------------------------------------------------------------|
G|---------------------------------------------------------------------------|
D|--9~--10~--12~--10~-12~-9--------------------------------------------------|
A|--7~--10~--12~--10~-12~-7--------------------------------------------------|
E|-------8~--10~---8~-10~----------------------------------------------------|


| /  slide up
| \  slide down
| h  hammer-on
| p  pull-off
| ~  let ring
| +  harmonic
| x  Mute note
===============================================================================
Comments