88 Fingers Louie - I Hate Myself Chords & Tabs

 

I Hate Myself Chords & Tabs

88 Fingers Louie Chords & Tabs

Version: 1 Type: Bass Tab 0 ratings
1 star 2 stars 3 stars 4 stars 5 stars
comments

I Hate Myself Bass Tab

Song Title: I Hate Myself
Artist: 88 FINGERS LOUIE
----------------------------------------------


				VERSE#1

G-------------------------------------------------------------------------------
D-------------------------------------------------------------------------------
A---00-000---3-333333------------3-3333333---00-000---3-333333------------------
E-----------------------11-111-----------------------------------33-333---11-111


				VERSE#2 (x2)
[ Tab from: http://www.guitartabs.cc/tabs/0-9/88_fingers_louie/i_hate_myself_btab.html ]
G-------------------------------------------------------------------------------
D-------------------------------------------------------------------------------
A---00-000---3-333333------------3-0-------00-000---3-33333---1010-101010-------
E-----------------------11-111-------3H5----------------------------------------

G------------------
D------------------
A---8-88-8888------
E------------------


				CHORUS (x2)

G---------------------------3H5--32---------------------------------------------
D-----------------------3H5---------32-----------------------3H5P3--------------
A---33-333---5-555555------------------3---33-333---5-555555---------543--------
E--------------------------------------------------------------------------543--
(the chorus isn't exactly right.figure out something different if you want)

then...
VERSE#2 (x2)
CHORUS (x2)
VERSE#1 (x4)
CHORUS (x4)
i think that's it. if anybody knows any other 88 fingers louie songs put them on
because this is the only one i know.

Submitted by:  Steve Webster (webster@limestone.kosone.com)
Comments