88 Fingers Louie - Holding Back Chords & Tabs

 

Holding Back Chords & Tabs

88 Fingers Louie Chords & Tabs

Version: 1 Type: Tab 0 ratings
1 star 2 stars 3 stars 4 stars 5 stars
comments

Holding Back Tab

   
-------------------------------------------------------------------------------
		       HOLDING BACK - 88 Fingers Louie
-------------------------------------------------------------------------------
Tabbed by: strungout777
Email: manuel_ramones4life_ramones@gmx.at 


Intro:
e|---------------------------------------------------------------------------|
B|---------------------------------------------------------------------------|
G|-9~------------------------------------------------------------------------|
D|-9~--------10-9-7-9--------------------------------------------------------|
A|-7~--------10-9-7-9--------------------------------------------------------|
E|------------8-7-5-7--------------------------------------------------------|

Verse1:
e|---------------------------------------------------------------------------|
B|---------------------------------------------------------------------------|
G|-9-9-9-9-9-9-12-12-12-12-12-12-9-9-9-9-9-9---------------------------------|
D|-x-x-x-x-x-x--x--x--x--x--x--x-x-x-x-x-x-x-10-9-7-9------------------------|x2
A|-7-7-7-7-7-7-10-10-10-10-10-10-7-7-7-7-7-7-10-9-7-9------------------------|
E|--------------------------------------------8-7-5-7------------------------|

Chorus:
e|---------------------------------------------------------------------------|
B|---------------------------------------------------------------------------|
G|-------------------------7-7-7-7-7-7-5-5-5-5-5-5---------------------------|
D|-2-2-2-2-2-2-5-5-5-5-5-5-7-7-7-7-7-7-5-5-5-5-5-5---------------------------|x2
A|-2-2-2-2-2-2-5-5-5-5-5-5-5-5-5-5-5-5-3-3-3-3-3-3---------------------------|
E|-0-0-0-0-0-0-3-3-3-3-3-3---------------------------------------------------|
[ Tab from: http://www.guitartabs.cc/tabs/0-9/88_fingers_louie/holding_back_tab.html ]
Bridge:
e|---------------------------------------------------------------------------|
B|---------------------------------------------------------------------------|
G|---------------------------------------------------------------------------|
D|-2--2-2-2-2-2-2-5-4-5-4-5-6-7--7-7-7-7-7-7-7-5-4-5-4-5-4-------------------|
A|-2--2-2-2-2-2-2-3-2-3-2-3-4-5--5-5-5-5-5-5-5-3-2-3-2-3-2-------------------|
E|-0-------------------------------------------------------------------------|
      x x x x x x                x x x x x x x 
e|---------------------------------------------------------------------------|
B|---------------------------------------------------------------------------|
G|---------------------------------------------------------------------------|
D|-2--2-2-2-2-2-2-5-4-5-4-5-6-7--7-7-7-7-7-7-7-5-4-5-4-5-4-2~----10-9-7-9----|
A|-2--2-2-2-2-2-2-3-2-3-2-3-4-5--5-5-5-5-5-5-5-3-2-3-2-3-2-2~----10-9-7-9----|
E|-0-------------------------------------------------------0~-----8-7-5-7----|
      x x x x x x                x x x x x x x

Verse2:
e|---------------------------------------------------------------------------|
B|---------------------------------------------------------------------------|
G|-9-9-9-9-9-9-12-12-12-12-12-12-9-9-9-9-9-9---------------------------------|
D|-x-x-x-x-x-x--x--x--x--x--x--x-x-x-x-x-x-x-10-9-7-9------------------------|x2
A|-7-7-7-7-7-7-10-10-10-10-10-10-7-7-7-7-7-7-10-9-7-9------------------------|
E|--------------------------------------------8-7-5-7------------------------|

Chorus:
e|---------------------------------------------------------------------------|
B|---------------------------------------------------------------------------|
G|-------------------------7-7-7-7-7-7-5-5-5-5-5-5---------------------------|
D|-2-2-2-2-2-2-5-5-5-5-5-5-7-7-7-7-7-7-5-5-5-5-5-5---------------------------|x4
A|-2-2-2-2-2-2-5-5-5-5-5-5-5-5-5-5-5-5-3-3-3-3-3-3---------------------------|
E|-0-0-0-0-0-0-3-3-3-3-3-3---------------------------------------------------|

e|---------------------------------------------------------------------------|
B|---------------------------------------------------------------------------|
G|---------------------------------------------------------------------------|
D|-2-2-2-2-2-2-5-5-5-5-5-5------2~-------------------------------------------|
A|-2-2-2-2-2-2-5-5-5-5-5-5------2~-------------------------------------------|
E|-0-0-0-0-0-0-3-3-3-3-3-3------0~-------------------------------------------|



| /  slide up
| \  slide down
| h  hammer-on
| p  pull-off
| ~  vibrato
| +  harmonic
| x  Mute note
===============================================================================
Comments