88 Fingers Louie - Go Away Chords & Tabs

 

Go Away Chords & Tabs

88 Fingers Louie Chords & Tabs

Version: 1 Type: Tab 0 ratings
1 star 2 stars 3 stars 4 stars 5 stars
comments

Go Away Tab

------------------------------------------------------------------------
                      "Go Away" - 88 Fingers Louie
------------------------------------------------------------------------

By:Nick Smith

play this at the end of each count after two
e|-------------------------------------------------------------------
B|-------------------------------------------------------------------
G|-------------------------------------------------------------------
D|3333---5555---7----------------------------------------------------
A|3333---5555---7-(let the last "A" note ring)-----------------------
E|1111---3333---5----------------------------------------------------

        then when the guitar and drums join in, just keep hittin A fast
e|--------------------------------------------------------------------|
B|--------------------------------------------------------------------|
G|--------------------------------------------------------------------|
D|7-------------------------------------------------------------------|
A|7-------------------------------------------------------------------|
E|5-------------------------------------------------------------------|
[ Tab from: http://www.guitartabs.cc/tabs/0-9/88_fingers_louie/go_away_tab.html ]
        break:
e|--------------------------------------------------------------------|
B|--------------------------------------------------------------------|
G|77-------------5555-------------------------------------------------|
D|77--7777--8-3--5555-------------------------------------------------|
A|55--7777--8-3--3333-------------------------------------------------|
E|----5555--6-1-------------------------------------------------------|


        "go away! the party's over."
e|--------------------------------------------------------------------|
B|--------------------------------------------------------------------|
G|7-5-7-5--3333-5555--------------------------------------------------|
D|7-5-7-5--3333-5555--------------------------------------------------|
A|5-3-5-3--1111-3333--------------------------------------------------|
E|--------------------------------------------------------------------|

        "leave today, and don't come over"
played the same as above, but the last note is F
e|--------------------------------------------------------------------|
B|--------------------------------------------------------------------|
G|3333----------------------------------------------------------------|
D|3333----------------------------------------------------------------|
A|1111----------------------------------------------------------------|
E|--------------------------------------------------------------------|

then, at the end of the song, he screams "go away!" and it changes 
key. just play the same chorus line, but start at the seventh fret

=======================================================================
Comments