88 Fingers Louie - Go Away Chords & Tabs

 

Go Away Chords & Tabs

88 Fingers Louie Chords & Tabs

Version: 2 Type: Bass Tab 0 ratings
1 star 2 stars 3 stars 4 stars 5 stars
comments

Go Away Bass Tab

-----------------------------------------------------------------------
Go Away
88 FINGERS LOUIS
-----------------------------------------------------------------------

riff 1
G|----------------------------------------------------------------|
D|-------------------------3-3------------------------------------|   (4x)
A|-0-3-0-3-5-3-0---0-3-0-3-----5-3-0-3-0-3-5-3-0------------------|
E|---------------3-------------------------------3-1-1-3-3-3-3----|

riff 2
G|----------------------------------------------------------------|
D|---------------------------------7---10-8-7---------------------|   (1x)
A|-5-5-0-0-0-1---3-3-3-3-5-5-0-0-0---7--------10------------------|
E|-------------1--------------------------------------------------|

riff 3
G|----------------------------------------------------------------|
D|----------------------------------------------------------------|   (4x)
A|-5-5-0-0-0-1---3-3-3-3------------------------------------------|
E|-------------1--------------------------------------------------|

riff 4
G|----------------------------------------------------------------|
D|----------------------------------------------------------------|   (1x)
A|-0>-1>----0>-0>-1>-5>-------------------------------------------|
E|-------1>-------------------------------------------------------|
[ Tab from: http://www.guitartabs.cc/tabs/0-9/88_fingers_louie/go_away_btab_ver_2.html ]
riff 5
G|----------------------------------------------------------------|
D|----------------------------------------------------------------|
A|-0>-1>----0>-1>-5-3-5-3-1-1-1-1-3-3-3-3-5-3-5-3-1-1-1-1---------|
E|-------1>-----------------------------------------------1-1-1-1-|

G|----------------------------------------------------------------|
D|----------------------------------------------------------------|
A|-5-3-5-3-1-1-1-1-3-3-3-3-5-3-5-3-1-1-1-1------------------------|
E|-----------------------------------------1-1-1-1----------------|

Repete riff 1 (3x)
Repete riff 2 (1x)
Repete riff 3 (4x)
Repete riff 4 (2x)

riff 6
G|----------------------------------------------------------------------|
D|----------------------------------------------------------------------|
A|-0>---1>-0>-5-3-5-3-1-1-1-1-3-3-3-3--5-3-5-3-1-1-1-1----------5-3-5-3-|
E|---1>---------------------------------------------1-1-1-1-------------|

riff 7
G|----------------------------------------------------------------|
D|----------------------------------------------------------------|
A|-1-1-1-1-3-3-3-1-1-1-1---------7-5-7-5-3-3-3-3-5-5-5-5--7-5-7-5-|
E|-----------------------1-1-1-1----------------------------------|

riff 8
G|--------------------------------------------------------------------|
D|--------------------------------------------------------------------|
A|-3-3-3-3---------7-5-7-5--3-3-3-3-5-5-5-5--7-5-7-5--3-3-3-3---------|
E|---------3-3-3-3--------------------------------------------3-3-3-3-|

Repete riff 1 (1x)

Comments