88 Fingers Louie - Apart At The Seams Chords & Tabs

 

Apart At The Seams Chords & Tabs

88 Fingers Louie Chords & Tabs

Version: 1 Type: Tab 0 ratings
1 star 2 stars 3 stars 4 stars 5 stars
comments

Apart At The Seams Tab

INTRO:          ***88 FINGERS LOUIE - APART AT THE SEAMS***
[ Tab from: http://www.guitartabs.cc/tabs/0-9/88_fingers_louie/apart_at_the_seams_tab.html ]
E----------------------------------------------------------------|
B----------------------------------------------------------------|
G-----(x8)-----(x8)-----(x8)-------------------------------------|
D--4--------5--------4-------------------------------------------|
A--2--------0--------0-------------------------------------------|
E----------------------------------------------------------------|

CHORUS:

E----------------------------------------------------------------|
B----------------------------------------------------------------|
G--4--(x8)--7--(x4)--6--(x4)--5--(x8)--7--(x8)-------------------|
D--4--------7--------6--------5--------7-------------------------|
A--2--------5--------4--------3--------5-------------------------|
E----------------------------------------------------------------|

That's about the whole song except for the solo...
Comments